» » »

Leaving The Past Tabs (ver.1)

Artists:  A B C D E F G H I J K L M N O P Q R S T U V W X Y Z # 

Leaving The Past Tabs (ver.1)

Immortal Technique
Rating:
4/5 (4 votes)

Hard to play? Try these video lessons and learn fast.
                immortal technique - leaving the past

normal tuning

 | means break


Cm7     – 34353X
F7      - 5453XX
F7II     – 8X878X
Bb7     – 109108XX
Csus2/D – 336X6X


      Cm7                     F7    F7    Bb7               Bb7    F7
E ----------------3--6--5--6--8----10----11----10----10----8-----------|
B ----4-----------------4-----x----9-----------------9-----7-----------|
G ----------3-----------5-----8----10----------------10----8-----------|
D -------5-----5--------3-----7----8-----------------8-----6-----------|
A ----3-----------------------8----------------------------------------|
E ---------------------------------------------------------------------|

      F7   F#7          F7          Csus2/D
E ----8----6--6--6------5-----------3-----------3------------|
B ----7----5--5--5------4-----|-----3-----------3------------|
G ----8----6--6--6------5-----|-----5-----------5------------|
D ----6----4--4--4------3-----|-----x--0--0--0--x--0--0--0---|
A -----------------------------------------------------------|
E -----------------------------------------------------------|
                                                 Repeated through whole song 
            
Hard to play? Try these video lessons and learn fast. | Correct




comments powered by Disqus
↑ Back to top | Tablatures and chords are parodies/interpretations of the original songs. You may use it for private study, scholarship, research or language learning purposes only