» » »

Immortal Technique, Caught In A Hustle Tabs (ver.2)

Artists:  A B C D E F G H I J K L M N O P Q R S T U V W X Y Z # 

Caught In A Hustle Tabs (ver.2)

Immortal Technique Tabs
Rating:
4/5 (1 vote)
Caught In A Hustle lessons Tabs too difficult? Try these video lessons and learn fast
                #------------------------------------------------------------------------------##


-------------------------------------------------------------------------------
                             Caught In a Hustle - Immortal Technique
-------------------------------------------------------------------------------

Note:
This is to replace my former submission. I had overlooked a mistake I made.
Also, its hard to see but, for guitar I there are two dashes and one dash in between 
to represent timing.

  Gtr I (repeat throughout)
|----0-------0--------0-------0-------0--------0------|
|------5--------5-------5-------5--------5-------5----|
|-5-------5--------5-------4-------4--------4---------|
|-----------------------------------------------------|
|-----------------------------------------------------|
|-----------------------------------------------------|


|----0-------0--------0-------0-------0--------0------|
|------6--------6-------6-------6--------6-------6----|
|-5-------5--------5---------------5--------5---------|
|--------------------------7--------------------------|
|-----------------------------------------------------|
|-----------------------------------------------------|


  Gtr II (repeat throughout - played softly)
|---------------------------------------------------------------|
|-5-5----5-5-5---5-5--5-5----5-5-5----5-5--6-6----6-6-6---6-6---|
|-5-5----5-5-5---5-5--4-4----4-4-4----4-4--5-5----5-5-5---5-5---|
|---------------------------------------------------------------|
|-0----0-------0---------------------------3----3-------3-------|
|---------------------3----3--------3---------------------------|


|------------------------|
|-6-6----6-6-6----6-6----|
|-5-5----5-5-5----5-5----|
|------------------------|
|-0----0--------3--------|
|------------------------|
            
Submit corrections

comments powered by Disqus
↑ Back to top | Immortal Technique Tabs for Caught In A Hustle. Lyrics for acoustic guitar and electric guitar. Tablatures and chords are parodies/interpretations of the original songs. You may use it for private study, scholarship, research or language learning purposes only