>
 >
Wrath From Above 1

Wrath From Above 1 Guitar Tabs

Immortal - Wrath From Above 1 chords, tabs, tablatures, lyrics

Guitar lessons | Add/correct | Request | Top 50 tabs Artists:  A B C D E F G H I J K L M N O P Q R S T U V W X Y Z 0-9

Wrath From Above 1 Guitar Tabs – Immortal

CD, Sheet music, Poster

Do you like Wrath From Above 1? Share with your friends now
Bass TabsTabsTabs v2
Tuning: Standard (E A D G B E)



Intro
 E|-----------------|--------------------||
 B|-----------------|--------------------||
 G|-----------------|--------------------||
 D|-4-4----8888-77--|-5-5----88-7-88-10--||X3
 A|-2-2-------------|-3-3----------------||
 E|-----------------|--------------------||

 E|-----------------|--------------------||
 B|-----------------|--------------------||
 G|-----------------|-----4-3-3---3------||
 D|-4-4----8888-77--|-5-5-2-1-1---1------||
 A|-2-2-------------|-3-3----------------||
 E|-----------------|--------------------||


 E|---------------|--------------|---------------|-------------||
 B|---------------|--------------|---------------|-------------||
 G|-4-4-----------|--------------|-4-4-----------|-------------||
 D|-2-2--222------|--------11----|-2-2--222------|-------------||
 A|---------22----|-3-3-333--33--|---------22----|-3-3--7-6-6--||
 E|-----------33--|-1-1----------|-----------33--|-1-1--5-4-4--||

E|--------------|-------------|--------------|-------------------------||
B|--------------|-------------|--------------|-------------------------||
G|-4-4----------|-------------|-4-4----------|-------------------------||
D|-2-2--222-----|--------11---|-2-2--222-----|--------------5-5--------||
A|---------22---|-3-3-333--33-|---------22---|-3-3--7-6-6-0-3-3-5-6-6--||
E|-----------33-|-1-1---------|-----------33-|-1-1--5-4-4-------3-4-4--||
End intro
Repet intro

 Riff 1
 E|--------------------------|--------------------------|
 B|--------------------------|--------------------------|
 G|--------------------------|--------------------------|
 D|----555-4----555-4-----3--|----555-4----555-4--------|
 A|----777-6----777-6-----3--|----777-6----777-6--3--2--|
 E|-0---------0-------00--1--|-0---------0---------4--3-|


 E|--------------------------|-------------------||End riff 1
 B|--------------------------|-------------------||
 G|--------------------------|-------------------||
 D|----555-4----555-4-----3--|----/5-4----/5-4---||
 A|----777-6----777-6-----3--|----/3-2----/3-2---||
 E|-0---------0-------00--1--|-0--/3-2-0--/3-2---||



Riff 2
 E|----------------------------|------------------------||
 B|----------------------------|------------------------||
 G|-7--5-7---5--8---7-3-5-6-7--|--5-7---5--8-7-5-8-7-5--||
 D|-7--5-7---5--8---7-3-5-6-7--|--5-7---5--8-7-5--------||
 A|-5--3-5---3--6---5-1-3-4-5--|--3-5---3--6-5-3-6-5-3--||
 E|----------------------------|------------------------||

 E|-----------------------------|------------------------||end riff 2
 B|-----------------------------|------------------------||
 G|-7---5-7---5--8---7-3-5-6-7--|--5-7---3-5-------------||
 D|-7---5-7---5--8---7-3-5-6-7--|--5-7---3-5-5--6-5-3----||
 A|-5---3-5---3--6---5-1-3-4-5--|--3-5---1-3-5--6-5-3----||
 E|-----------------------------|------------3--4-3-1----||


Play Riff 1 X 2

Play Riff 2

Play Riff 1 X 2

Play Riff 2 X 2


Interlude

Riff 3
 E|------------|------------|------------|------------||
 B|------------|------------|------------|------------||
 G|------------|------------|------------|------------||
 D|-2-2--1111--|-2-2--2222--|-2-2--1111--|-2-2--0000--||
 A|-2-2--3333--|-2-2--4444--|-2-2--3333--|-2-2--2222--||
 E|-0-0--------|-0-0--------|-0-0--------|-0-0--------||

 E|------------|------------|------------|------------||
 B|------------|------------|------------|------------||
 G|------------|------------|------------|------------||
 D|-2----1111--|-2-2--2222--|-2----1111--|-2-2--------||
 A|-2----3333--|-2-2--4444--|-2----3333--|-2-2--5544--||
 E|-0----------|-0-0--------|-0----------|-0-0--7766--||

 E|------------|------------|------------|------------||
 B|------------|------------|------------|------------||
 G|------------|------------|------------|------------||
 D|-2----1111--|-2-2--2222--|-2----1111--|-2-2--0000--||
 A|-2----3333--|-2-2--4444--|-2----3333--|-2-2--2222--||
 E|-0----------|-0-0--------|-0----------|-0-0--------||

 E|------------|------------|------------|------------||
 B|------------|------------|------------|------------||
 G|------------|------------|------------|------------||
 D|-2----1111--|-2-2--2222--|-2----1111--|-2-2--------||
 A|-2----3333--|-2-2--4444--|-2----3333--|-2-2--5544--||
 E|-0----------|-0-0--------|-0----------|-0-0--7766--|| End riff 3



Riff 4
 E|---------------------|-------------------------------------||
 B|---------------------|-------------------------------------||
 G|---------------------|-------------------------------------||
 D|-2-------------------|-------------------------------------||
 A|-2-------------------|------------------4h5h4-7p5p4--------||
 E|-0-00-0000-0000-0000-|-6666-6666--4h5h7-------------7p5p4--||

 E|---------------------|------------------------||
 B|---------------------|------------------------||
 G|---------------------|------------------------||
 D|-2-------------------|------------------------||
 A|-2-------------------|------------------------||
 E|-0-00-0000-0000-0000-|-4444-4444-2^3----------||
                                    trill
 E|---------------------|-------------------------------------||
 B|---------------------|-------------------------------------||
 G|---------------------|-------------------------------------||
 D|-2-------------------|-------------------------------------||
 A|-2-------------------|------------7p5p4-------7p5p4--------||
 E|-0-00-0000-0000-0000-|-6666-6666--------7p5p4-------7p5p4--||

 E|---------------------|------------------------||
 B|---------------------|------------------------||
 G|---------------------|------------------------||
 D|-2-------------------|------------------------||
 A|-2-------------------|-3333-3333-1111-1111----||
 E|-0-00-0000-0000-0000-|-4444-4444-2222-2222----||  End riff 4


 Riff 3 variation
 E|------------|------------|------------|------------||
 B|------------|------------|------------|------------||
 G|------------|------------|------------|------------||
 D|-2----1111--|-2-2--2222--|-2----1111--|-2-2--0000--||
 A|-2----3333--|-2-2--4444--|-2----3333--|-2-2--2222--||
 E|-0----------|-0-0--------|-0----------|-0-0--------||

 E|------------|------------|------------|------------||
 B|------------|------------|------------|------------||
 G|------------|------------|------------|------------||
 D|-2----1111--|-2-2--2222--|-2----1111--|-2-2--------||
 A|-2----3333--|-2-2--4444--|-2----3333--|-2-2--5544--||
 E|-0----------|-0-0--------|-0----------|-0-0--7766--||


Play Riff 4

Play riff 2 X 2

Play riff 1 X 2

Play Riff 2

SOLO: Just improvise a lot in E, Play over Riff 1 X 2

Play Intro

END





Comments


Popular Immortal tabs & chords
Where Dark And Light Don't Differ 1 Bass Tabs
Battle Fields Tabs
Blashyrkh Tabs
Circling Above In Time Before Time Tabs
My Demension 1 Tabs
One By One 2 Tabs
Pure Holocaust Tabs
The Darkness That Embraces Me Tabs
Triumph Tabs
Where Dark And Light Don Differ Tabs


Song lyrics



↑ Back to top | Tablatures and chords are parodies/interpretations of the original songs. You may use it for private study, scholarship, research or language learning purposes only
© 2014 AZChords.com Contact us | Privacy policy | DMCA | Add/correct tabs | Request tabs | Top 50 tabs