>
 >
Withstand The Fall Of Time

Withstand The Fall Of Time Guitar Tabs

Immortal - Withstand The Fall Of Time chords, tabs, tablatures, lyrics

Guitar lessons | Add/correct | Request | Top 50 tabs Artists:  A B C D E F G H I J K L M N O P Q R S T U V W X Y Z 0-9

Withstand The Fall Of Time Guitar Tabs – Immortal

CD, Sheet music, Poster

Do you like Withstand The Fall Of Time? Share with your friends now
TabsTabs v2
IMMORTAL - WITHSTAND THE FALL OF TIME
                     From the Album AT THE HEART OF WINTER
                    


..  - palm mute          /  - slide up to
 \  - slide down to      ~  - vibrato
 h  - hammer on          b  - bend
 p  - pull off            Suffixes for bend
                          ph - pinch harmonic
                           f - full bend    h - half bend
*  - see comment           r - release      t - tap bend
X  - percussion mute       ~ - vibrato bend
@  - slight palm mute     () - ghost note, sustained note

 Tune to E

 Withstand The Fall Of Time

 Riff A
|-----------------------------------------------------------------------------|
|-----------------------------------------------------------------------------|
|-----------------------------------------------------------------------------|
|----2222222255555555444444444h5p4p222222200-----22222222555555557744---------|
|-2-------------------------------------------2----------------------55-------|
|-0-------------------------------------------0-------------------------6a.h.-|


 Riff B            1,3        2                 4
|-----------------|----------|-----------------|----------|
|-----------------|----------|-----------------|----------|
|-----------------|----------|-----------------|----------|
|-----------------|-33333333-|-3-000-3-000-3p0-|-22220000-|
|-2-----2-----2---|----------|-----------------|----------|
|-0-000-0-000-0-0-|----------|-----------------|----------|
    ...   ...   .

 Sustain
|---------------|
|---------------|
|---------------|
|---------------|
|-2-------------|
|-0-------------|


 Riff C
|------------------------------------------------------------------------------|
|------------------------------------------------------------------------------|
|------------------------------------------------------------------------------|
|----------4-44-4-4-5-55-5-5-7-77-7-7-a.h.---------7-77-7-7-5-55-5-5-7-777-9-7-|
|-2-22-2-2-5-55-5-5-3-33-3-3-5-55-5-5-5---2-22-2-2-5-55-5-5-3-33-3-3-5-555-7-5-|
|-0-00-0-0--------------------------------0-00-0-0-----------------------------|


 Riff D
|----------------------------|
|----------------------------|
|----------------------------|
|---555-333-6----333-555-----|
|---777-555-8----555-777-3/4-|
|-0-----------00---------5/6-|
  .           ..


 Riff E
|------------------------------------------------------------------|
|------------------------------------------------------------------|
|------------------------------------------------------------------|
|-9--------------7------10------9--------------7------10---10---10-|
|-7--------------5------8-------7--------------5------8----8----8--|
|---000000000000---0000----0000---000000000000---0000---00---00----|
    ............   ....    ....   ............   ....   ..   ..


 Riff F                  1,3       2      4
|-----------------------|---------|------|-------------|
|-----------------------|---------|------|-------------|
|-----------------------|---------|------|-------------|
|---99---11---12---99---|---------|-7777-|-----7-------|
|---77---9----10---77---|-542-542-|-5555-|-----5-8-7-5-|
|-0----0----0----0----0-|---------|------|-000---6-5-3-|
  .    .    .    .    .   ... ...          ...


 Riff G
|-----------------------------------------------------------------|
|-----------------------------------------------------------------|
|-----------------------------------------------------------------|
|---9"----10"9"7"---9"----10"7"---10"----12"10"9"----10"----12"9"-|
|---7"----7"-7"7"---7"----7"-7"---12"----12"12"12"---12"----12"12"|
|-0---------------0-------------0------------------0--------------|
  .               .             .                  .


 Riff H
|----------------------------------------------------------------------|
|----------------------------------------------------------------------|
|----------------------------------------------------------------------|
|---555---5---2-4---555---5---4----777--7---7-5----777---7-8-7-5-7-5-4-|
|----------------------------------------------------------------------|
|-0-----0---0-----0-----0---0----0----0---0-----0------0---------------|


 Riff I
|----------------------------------|
|----------------------------------|
|----------------------------------|
|----4--5--7-7a.h.-----7--5--7-9-7-|
|-2--5--3--5--------2--5--3--5-7-5-|
|-0-----------------0--------------|


 Riff J
|--------------------5----------------------------------5-------8----------|
|----------------------5----------------------------------5-------8--------|
|------------------------7----------------------------------7-------10-----|
|-9------9----9----7-------5-555-4----------9----9----7-------5------------|
|-7-7777-7-77-7-77-5-------3-333-2-2---7777-7-77-7-77-5-------3--------2---|
|----------------------------------0-----------------------------------0---|
    ....   ..   ..                     ....   ..   ..


 Riff K                                     1    2
|-----------------------------------------------|-------|
|-----------------------------------------------|-------|
|-----------------------------------------------|-------|
|-----5-4-----4-----2---------5-4---------------|-------|
|---------5-----5-----3-----------5---------5-5-|-5-5/7-|
|-777-------7-----7-----5-777-------7-33333-3-3-|-3-3/5-|
  ...                     ...         .....


 Riff L
|-----------------------------------------------------------------------|
|-----------------------------------------------------------------------|
|-----------------------------------------------------------------------|
|-----------------------------------------------------------------------|
|-----10-----9------------10----9p5-------8-----7-----------8-----7p3---|
|-777----777---777-10-777---777-----7-555---555---555-8-555---555-----5-|
  ...    ...   ...    ...   ...       ...   ...   ...   ...   ...


 Riff L Continued
|---------------------------|
|---------------------------|
|---------------------------|
|-----4---4------2----5p2---|
|-555555555--33333333-----3-|
|---------------------------|





Comments


Popular Immortal tabs & chords
At The Heart Of Winter 1 Tabs
At The Heart Of Winter Intro Tabs
Blizzard Beasts Tabs
Frozen By Icewinds Tabs
My Demension Tabs
One By One 1 Tabs
Sons Of Northern Darkness 2 Tabs
The Darkness That Embraces Me Tabs
Withstand The Fall Of Time 1 Tabs
Beyond The North Waves Ukulele


Song lyrics



↑ Back to top | Tablatures and chords are parodies/interpretations of the original songs. You may use it for private study, scholarship, research or language learning purposes only
© 2014 AZChords.com Contact us | Privacy policy | DMCA | Add/correct tabs | Request tabs | Top 50 tabs