>
 >
Where Light And Dark Dont Differ

Where Light And Dark Dont Differ Guitar Tabs

Immortal - Where Light And Dark Dont Differ chords, tabs, tablatures, lyrics

Guitar lessons | Add/correct | Request | Top 50 tabs Artists:  A B C D E F G H I J K L M N O P Q R S T U V W X Y Z 0-9

Where Light And Dark Dont Differ Guitar Tabs – Immortal

CD, Sheet music, Poster

Do you like Where Light And Dark Dont Differ? Share with your friends now
Tabs
PROPS GO TO: Hades

-- -- -- -- -- -- -- -- -- -- --
-- -- -- -- -- -- -- -- -- -- --
-- -- -- -- -- -- -- -- -- -- --
-- -- -- -- -- -- -- -- -- -- --

(}{|| 


" = tremolo pick or pick the same way as already been shown in the same riff
r = rest / = slide up \ = slide down

   RIFF A (2x)
e |-----------------------------------------------------------------------------|
B |-----------------------------------------------------------------------------|
G |-9-------9-10-------10-9------9-10-12-10-7-9----9-10----10-9----9-101010-777-|
D |-9-------9-10-------10-9------9-10-12-10-7-9----9-10----10-9----9-101010-777-|
A |-7-------7-8--------8--7------7-8--10-8--5-7----7-8-----8--7----7-8-8-8--555-|
E |---000000-----000000----000000---------------0"------0"------0"--------------|

   RIFF B
e |------------------------------------------------------------------------------|
B |------------------------------------------------------------------------------|
G |-9----------------------------------------------------------------------------|
D |-9---------7777-----------------101010-9---------77776666---------------------|
A |-7----78888----88877----777755558-8-8--7----77888--------777-778877557755332--|
E |--0000--------------0000----------------0000-------------------------------0--|

RIFF A
RIFF B

   RIFF C
e |---------------------------------------------------------------------
B |---------------------------------------------------------------------
G |---------------------------------------------------------------------
D |---------------------------------------------------------------------
A |14141414-12---10101010-9---14141414-12---12121212-121091097-14141414-
E |------------0------------0-------------0-----------------------------
                                                     |-h.P.M.-|

e -------------------------------------------------|
B -------------------------------------------------|
G -------------------------------------------------|
D -------------------------------------------------|
A 12---10101010-9---14141414-12---1212121211111111-|
E ---0------------0-------------0------------------|

    RIFF D
e |--------------------------------------------------------------------|
B |--------------------------------------------------------------------|
G |--------------------------------------------------------------------|
D |-----------5---7------------5---7------------5---7------------5---7-|
A |--10109977-3---5---10109977-3---5---10109977-3---5---10109977-3---5-|
E |00---------------00---------------00---------------00---------------|

    RIFF E
e |--------------------------------------------------------------------
B |--------------------------------------------------------------------
G |--------------------------------------------------------------------
D |10\/9--10959-------------r-9/109--10959-------------r-9/109--10977--
A |8\-/7--8-757---------------7/8-7--8-757----------543--7/8-7--8-759--
E |-----00-----0044444433333-------00-----0044444433321-------00-----00

e ---------------------------------------|
B ---------------------------------------|
G ---------------------------------------|
D ------------r-9/109--10959-------------|
A --------------7/8-7--8-757-------------|
E 44444433333--------00-----0044444433 R-|

RIFF E play with lyrics
Barbaric tempered steel strike forth and toll our days
the red and black of our Victorian crest
We flag beneath... Beneath the solar seas
we grant as the might to conquer so spread be our wrath...

RIFF C
RIFF D
RIFF E with lyrics: (variation in E play two first parts twice)
Meet/ the voice of us darkblinded souls
as it blasts from an open sky
victorious/ we live over all...all strong men under us fall
The longer we ride this yearn will make us find

   RIFF F Where dark and light don't differ 2x              the "power" chord ending
e |--------------------------------------------------------|------------|
B |--------------------------------------------------------|------------|
G |--------------------------------------------------------|-------5-55-|
D |-5---5---5---4---4---2---2---5---5---5---4----4-4h5p4---|-------4-44-|    4 5
A |---7---7---7---5---5---3---3---7---7---7---5---------5~-|-5-555-3-33-| or 2 2
E |-----8---8---8---7---7---5---5---8---8---8---7----------|-2-222------| (not sure)

  RIFF G
e |-------------------------------------------|-ending-1----||ending-2----|
B |---------------------------------------------------------|-------------|
G |---------------------------------------------------------|-------------|
D |-9-------------9--------------9--------------------------|-------------|
A |-7-7-8-7-5-7-5-7-7-8-7-10-8-7-7-7-8-7-5-7-5--------------|-------------|
E |-0-------------0--------------0-------------3-333-333-333|1-111-111-111|

RIFF F (no words)

   RIFF H                                                         (with lyrics
e |----------------------------------------------------------------|the riff -|
B |----------------------------------------------------------------|ends like this:3rds)
G |----------------------------------------------------------------|----------| or so
D |-9--------7--5--9------7--5-4----9--------7--5--9---------------|-----2----| instead
A |-7--------5--3--7------5--3-2-5--7--------5--3--7---------------|-5---3----| of the
E |-000000000------0000000-------3-0000000000------00000000????????|-2--------| ????


RIFF H with lyrics:
Winterized... blackening descend
Mesmerized... into demonlands

RIFF G 2x
SOLO!!! With RIFF A(2x or so), RIFF B
RIFF C 2x
RIFF D
RIFF E with lyrics:
Far... far and further away
in mightful strong and mindless realms
We flag beneath... beneath the solar seas
again it's time to conquer to spread be our wrath...
RIFF F "Where dark and light don't differ"
RIFF H 2x
Winterized... blackening ascend
Mesmerized... in demons lands

RIFF G 2x
The longer we ride/the stronger we stride...

Track 4 from At The Heart Of The Winter (Osmose '99).





Comments


Popular Immortal tabs & chords
A Sign For The North Horde To Ride Tabs
At The Heart Of Winter 1 Tabs
Immortal - Tyrants Tabs
Nebular Ravens Winter Tabs
Sons Of Northern Darkness 1 Tabs
Sons Of Northern Darkness 2 Tabs
The Darkness That Embrace Me 1 Tabs
Tragedies Blows At Horizon Tabs
Triumph Tabs
Tyrants Tabs


Song lyrics



↑ Back to top | Tablatures and chords are parodies/interpretations of the original songs. You may use it for private study, scholarship, research or language learning purposes only
© 2014 AZChords.com Contact us | Privacy policy | DMCA | Add/correct tabs | Request tabs | Top 50 tabs