» » »

Immortal, Where Dark And Light Don't Differ Bass tabs (ver.1)

Artists:  A B C D E F G H I J K L M N O P Q R S T U V W X Y Z # 

Where Dark And Light Don't Differ Bass tabs (ver.1)

Immortal Tabs
Rating:
0/5 (0 votes)
Where Dark And Light Don't Differ lessons Tabs too difficult? Try these video lessons and learn fast
                |----------------------------------------------------------------------|
|----------------------------------------------------------------------|
|7------7-8------8-7------7-8-10-8-5-7------7-8------8-7------7-888-555|
| 000000---000000---000000------------000000---000000---000000---------|




|-------------------------------------------------------------|
|-----------777---------------------------777666--------------|
|7------7-88---87------7-5558887------7-88------87-7779955773-|
|-000000---------000000---------000000-----------------------3|




|-------------------------------------------------------------------
|-------------------------------------------------------------------
|14-14-14-14-14-14-12---10-10-10-10-10-10-9---14-14-14-14-14-14-12--
|---------------------0---------------------0----------------------0


-------------------------------------|
-------------------------------------|
-12-12-12-12-12-12-10-10-10-10-10-10-|
-------------------------------------|




|------------------------|
|------------------------|
|----101010-999-777-3---5|
|000---------------------|




|---------------------------------------|
|---------------------------------------|
|8989------9879-------------------------|
|----000000----0000004444444444333333210|



|---------------|
|---------------|
|---------------|
|5----3----0----|




|-----------------------------------------------------------|
|-----------------------------------------------------------|
|-----------------------------------------------------------|
|0------0------0------4-444444-0------0------0------3-333333|




|-----------------------------------------------|
|-----------------------------------------------|
|7-777777777-5-555-3-333-7-777777777-3-333-5-555|
|-----------------------------------------------|
            
Submit corrections

comments powered by Disqus
↑ Back to top | Immortal Bass for Where Dark And Light Don't Differ. Lyrics for acoustic guitar and electric guitar. Tablatures and chords are parodies/interpretations of the original songs. You may use it for private study, scholarship, research or language learning purposes only