» » »

Immortal, Tyrants Tabs (ver.1)

Artists:  A B C D E F G H I J K L M N O P Q R S T U V W X Y Z # 

Tyrants Tabs (ver.1)

Immortal Tabs
 Rating:
4/5 (4 votes)
Tyrants lessons Tabs too difficult? Try these video lessons and learn fast
                |-------------------------------------------------|
|-------------------------------------------------|
|-------------------------------------------------|
|---12-12----12----12-------12-12-----12----12----|
|---10-10----10----10-------10-10-----10----10----|
|-0--0--0--0--0-----0-----0--0--0--0--0-----0-----|

|------------------------------------------|----------|-------|
|------------------------------------------|----------|-------|
|------------------------------------------|----------|-------|
|---14-14----14----14-------14-14-----14---|-14/15\14-|--15"--|
|---12-12----12----12-------12-12-----12---|-12/13\12-|--13"--|
|-0--0--0--0--0-----0-----0--0--0--0--0--0-|-0--------|-------|
. . . . .


<-----repeat------->
|--------------------|
|--------------------|
|--------------------|
|-2-----3-------2--3-|
|-2-----3-----2----3-|
|-2-----3---3------1-|
            
Submit corrections

comments powered by Disqus
↑ Back to top | Immortal Tabs for Tyrants. Lyrics for acoustic guitar and electric guitar. Tablatures and chords are parodies/interpretations of the original songs. You may use it for private study, scholarship, research or language learning purposes only