» » »

Immortal, In My Kingdom Cold Tabs (ver.2)

Artists:  A B C D E F G H I J K L M N O P Q R S T U V W X Y Z # 

In My Kingdom Cold Tabs (ver.2)

Immortal Tabs
 Rating:
4/5 (6 votes)
In My Kingdom Cold lessons Tabs too difficult? Try these video lessons and learn fast
                                                     music & lyrics by abbath,horgh,demonaz 

                               IMMORTAL
                           IN MY KINGDOM COLD


* - palm mute
~ - let note ring
ph - pinched harmonic
s - slide
' - trem pick

   theres no decent tab of this song anywhere and the ones ive seen are
   in the wrong tuning.for the record all songs on 'SONS OF NORTHERN 
   DARKNESS' ARE D POWER CHORDS. D,G,C,F,A,D, THIS SHOULD BE 100%.




 INTRO (RIFF 1)  

D---------------------------]
A---------------------------]
F----------------0----------]
C----2-----2----0-0---3-----]
G---2-2---2-2--------2-2----]
D--0---0-3---3-2----1-------]


 (RIFF 2)

D--------------------------------------------]second-----]
A--------------------------------------------]time only--]
F--------------------------------------------]-----------]
C--2-----2--5-----5--4----4-----3----3-------]-----------]
G--2-----2--5-----5--4----4-----3----3-------]-----------]
D--0-000-0--3-333-3--2-22-2-22--1-11-1-11----]--1ph------]
     ***      ***      **   **    **   **


 (RIFF 3)

D-----------------------------------------]
A-----------------------------------------]
F-----------------------------------------]
C--9--------11-s-12-s-11-----10------9----]
G--7---------9-s-10-s-9-------8-----10----]
D--0-000000---------------000----000------]
     ******               ***    ***


                            
D-----------------------------------------]
A-----------------------------------------]
F-----------------------------------------]
C--9--------11-s-12-s-11-----10------8----]
G--7---------9-s-10-s-9-------8------6----]
D--0-000000---------------000----000------]
     ******               ***    ***


then play..

riff 2
riff 3


 (RIFF 4)

D------------------------]--------------]--------------]
A------------------------]--------------]--------------]
F------------------------]--------------]--------------]
C--9----9----9----9------]--7----7------]--6----6------]
G--7-77-7-77-7-77-7-77---]--5-55-5-55---]--4-44-4-44---]
D------------------------]--------------]--------------]
     **   **   **   **        **   **        **   **

                             1ST END              2ND END
D-----------------------]--------------------]-----------------------]
A-----------------------]--------------------]-----------------------]
F-----------------------]--------------------]-----------------------]
C--10---10---10---10----]--10---8---7---7----]--10---8---7---8-------]
G-----------------------]--------------------]-----------------------]
D----88---88---88---88--]----88--88--88--88--]----88--88--88--88-----]
     **   **   **   **       **  **  **  **       **  **  **  **


 (RIFF 5)
                                    1st end    2nd end
D-----0--0---------5--5------------]---------]---------]
A------0--0---------5--5-----------]---------]---------]
F-------0--0---7~----7--7----5~----]---------]---------]
C--2~----------7~------------5~----]--5'-4'--]--4'-5'--]
G--2~----------5~------------3~----]---------]---------]
D--0~------------------------------]---------]---------]


  (RIFF 6)
                                    1st end    2nd end
D----------------------------------]---------]---------]
A----------------------------------]---------]---------]
F--------------7~------------5~----]---------]---------]
C--2~----------7~------------5~----]--5'-4'--]--4'-5'--]
G--2~----------5~------------3~----]---------]---------]
D--0~------------------------------]---------]---------]


 (RIFF 7)

D-----------------------------------------------------------------]
A-----------------------------------------------------------------]
F--9--9--9--9----11--11-----14--14--14--14----12--12--12--12------]
C--X--X--X--X----X---X------X---X---X---X-----X---X---X---X-------]
G--7--7--7--7----9---9------12--12--12--12----10--10--10--10------]
D---00-00-00--00--00---00-----00--00--00--00----00--00--00--00----]
    ** ** **  **  **   **     **  **  **  **    **  **  **  **

D-----------------------------------------------------------------]
A-----------------------------------------------------------------]
F--9--9--9--9----11--11-----14--14--14--14----12--12--11--11------]
C--X--X--X--X----X---X------X---X---X---X-----X---X---X---X-------]
G--7--7--7--7----9---9------12--12--12--12----10--10--9---9-------]
D---00-00-00--00--00---00-----00--00--00--00----00--00--00--00----]
    ** ** **  **  **   **     **  **  **  **    **  **  **  **




then play...

riff 6
riff 7
riff 1
riff 2
riff 3
riff 2
riff 3


 (FILL 1)

D---------------------------]
A---------------------------]
F--12~~---------------------]
C--12~~---------------------]
G--10~~- LOWER-WHAMMY-BAR---]
D---------GRAD.-DIVE--------]


 (INTERLUDE)

D--------------------------------------]
A--------------------------------------]
F--------------------------------------] 
C-----------------------------------2--]
G-----------------------------------2--]
D--000-000-000-000-000-000-000-000--0--]
   *** *** *** *** *** *** *** ***


D------------------------------------------------------------------------]
A------------------------------------------------------------------------]
F------------------10'-5'-9'------------------9'-5'-4'-------------------]
C-------------------8'-3'-7'------------------7'-3'-2'-------------------]
G------------------------------------------------------------------------]
D--000-000-000---------------000-000-000-000------------000-000-000-000--]
   *** *** ***               *** *** *** ***            *** *** *** ***

                    END 1                      END 2
D--------------]---------------------------]-----------------------]
A--------------]---------------------------]-----------------------]
F--10'-5'-4'---]---------------------------]-----------------------]
C---8'-3'-2'---]---------------------------]-----------------------]
G--------------]---------------------------]-------------------5'--]
D--------------]--000-000-000-5'-8'-7'-5'--]--000-000-000-5'-8'----]
                  *** *** ***                 *** *** ***



D---------------------------------------]
A---------------------------------------]
F---------------------------------------] 
C----------------------------------/-2--]
G----------------------------------/-2--]
D--000-000-000-000-000-000-000-000-/-0--]
   *** *** *** *** *** *** *** ***




D------------------------------------------------------------------------]
A------------------------------------------------------------------------]
F------------------10'-5'-9'------------------9'-5'-4'-------------------]
C-------------------8'-3'-7'------------------7'-3'-2'-------------------]
G------------------------------------------------------------------------]
D--000-000-000---------------000-000-000-000------------000-000-000-000--]
   *** *** ***               *** *** *** ***            *** *** *** ***

                    END 1                      END 2
D--------------]---------------------------]-----------------------]
A--------------]---------------------------]-----------------------]
F--10'-5'-4'---]---------------------------]-----------------------]
C---8'-3'-2'---]---------------------------]-----------------------]
G--------------]---------------------------]-------------------5'--]
D--------------]--000-000-000-5'-8'-7'-5'--]--000-000-000-5'-8'----]
                  *** *** ***                 *** *** ***


 then play..

riff 4
riff 5
riff 6
riff 7
riff 6
riff 7



 (riff 8)

D-------------------------------------------------------------------]
A-------------------------------------------------------------------]
F--12--12--12--12---11-11-11-11---11-11-11-11----9--9--9--9---------]
C--X---X---X---X-----X--X--X--X----X--X--X--X----X--X--X--X---------]
G--10--10--10--10----9--9--9--9----9--9--9--9----7--7--7--7---------]
D----00--00--00---00--00-00-00--00--00-00-00--00--00-00-00-00-------]
     **  **  **   **  ** ** **  **  ** ** **  **  ** ** ** ** 



D---------------------------------------------------------------------]
A---------------------------------------------------------------------]
F--12--12--12--12---14--14--14--14---11-11-11-11---9--9--9--9---------]
C--X---X---X---X-----X--X---X---X----X--X--X--X----X--X--X--X---------]
G--10--10--10--10---12--12--12--12---9--9--9--9----7--7--7--7---------]
D----00--00--00---00--00--00--00--00--00-00-00--00--00-00-00-00-------]
     **  **  **   **  **  **  **  **  ** ** **  **  ** ** ** **


 (RIFF 9)

D---------------------------------------------------------------------------
A---------------------------------------------------------------------------
F---------------------------------------------------------------------------
C---------------------------------------------------------------------------
G101010-101010-101010-101010-999-999-999-999-999-999-999-999-777-777-777-777
D---------------------------------------------------------------------------


D-------------------------------------------------------------------------]
A-------------------------------------------------------------------------]
F-------------------------------------------------------------------------]
C-------------------------------------------------------------------------]
G101010-101010-101010-101010-121212-121212-121212-121212-999-999-999-999--]
D-------------------------------------------------------------------------]


D--------]
A--------]
F--------]
C--------]
G-10--9--]
D--8--7--]




    
  (OUTRO)
D---------------------------]
A---------------------------]
F----------------0----------]
C----2-----2----0-0---3-----] FADE OUT.
G---2-2---2-2--------2-2----]
D--0---0-3---3-2----1-------]





 ENJOY PLZ RATE THIS FOR ME,IM ALSO WORKING ON 'ANTARCTICA'AS WELL BECAUSE
 THERES NO TAB AT ALL FOR IT..ILL POST IT SOON WHEN ITS DONE.




    
            
Submit corrections

comments powered by Disqus
↑ Back to top | Immortal Tabs for In My Kingdom Cold. Lyrics for acoustic guitar and electric guitar. Tablatures and chords are parodies/interpretations of the original songs. You may use it for private study, scholarship, research or language learning purposes only