>
 >
In My Kingdom Cold

In My Kingdom Cold Guitar Tabs

Immortal - In My Kingdom Cold chords, tabs, tablatures, lyrics

Guitar lessons | Add/correct | Request | Top 50 tabs Artists:  A B C D E F G H I J K L M N O P Q R S T U V W X Y Z 0-9

In My Kingdom Cold Guitar Tabs – Immortal

CD, Sheet music, Poster

Do you like In My Kingdom Cold? Share with your friends now
TabsTabs v2
Tuning: D A D G B E

listen 2 song for exact rythms

-----------------------------------|
-----------------------------------|
-----------------------------------|
-----0-------0--------3-----0------|
---0---0---0---0----0-----0---0----|
-0-------3-------1/2----1----------|X2

-------------------------------------|
-------------------------------------|
-------------------------------------|
-------------------------------------|
-0-000-0-3-333-3-2-222-2-1-111-1-1---|
-0-000-0-3-333-3-2-222-2-1-111-1-ph--|X4 only does the ph on 2nd time
 pm...   .....   .....   .....

------------------------------------------------------------------|
------------------------------------------------------------------|
------------------------------------------------------------------|
-7-------------------8------:---7--------------------8------6-----|
-5--------7\8/7------6------8---5---------7\8/7------6------4-----|
---000000-------0000---0000-------0000000-------0000---0000-------|X2
   pm....       ....   ....       .......       ....   ....
this isnt the exact same rythm
: = 10
-------------------------------------|
-------------------------------------|
-------------------------------------|
-------------------------------------|
-0-000-0-3-333-3-2-222-2-1-111-1-1---|
-0-000-0-3-333-3-2-222-2-1-111-1-ph--|X4 only does the ph on 2nd time
 pm...   .....   .....   .....

------------------------------------------------------------------|
------------------------------------------------------------------|
------------------------------------------------------------------|
-7-------------------8------:---7--------------------8------6-----|
-5--------7\8/7------6------8---5---------7\8/7------6------4-----|
---000000-------0000---0000-------0000000-------0000---0000-------|X2
   pm....       ....   ....       .......       ....   ....
this isnt the exact same rythm
: = 10
-------------------------------------------------------------------------|
-------------------------------------------------------------------------|
-------------------------------------------------------------------------|
-7-777-7-777-7-777-7-777-5-555-5-555-4-444-4-444-3-333-3-333-3-333-3-333-|
-5-555-5-555-5-555-5-555-3-333-3-333-2-222-2-222-1-111-1-111-1-111-1-111-|
-------------------------------------------------------------------------|
   pm.   ...   ...   ...   ...   ...   ...   ...   ...   ...   ...   ...
-----------------|
-----------------|
-----------------|
-----------------|
-6-66-6-5-55-5---|
-6-66-6-5-55-5---|X2 continued from above riff
   ..     ..
   not 2 sure bout this part(A*)
---3--2--------3---3--------------3--2-----3-----3-------------|
----1--1---------3---3-------------1--1------3-----3-----------|
-----0--0---------0---0-------------0--0-------0----0----------|
-----------5------------3-3-2------------5------------3-2-3----|
-0---------3------------1-------0--------3------------1--------|
-0------------------------------0------------------------------|
                          trem                          trem

-----------------------|
-----------------------|
-----------------------|
---5-3-3-2---5-3-2-3---|
-0-3-1-----0-3-1-------|
-0---------0-----------|
       trem      ...
let the power chords ring!

-------------------------------------------------------------------|
-------------------------------------------------------------------|
-------------------------------------------------------------------|
-7----7----7----7----9----9----9----9----12----12----12----12------|
-5----5----5----5----7----7----7----7----10----10----10----10------|
---00---00---00---00---00---00---00---00----00----00----00----00---|
   pm   ..   ..   ..   ..   ..   ..   ..    ..    ..    ..    ..
----------------------------|
----------------------------|
----------------------------|
-:----:----:----:----:------|
-8----8----8----8----8------|
---00---00---00---00--------| comtinued from above riff
   ..   ..   ..   .. let ring abit
: = 10

-------------------------------------------------------------------|
-------------------------------------------------------------------|
-------------------------------------------------------------------|
-7----7----7----7----9----9----9----9----12----12----12----12------|
-5----5----5----5----7----7----7----7----10----10----10----10------|
---00---00---00---00---00---00---00---00----00----00----00----00---|
   pm   ..   ..   ..   ..   ..   ..   ..    ..    ..    ..    ..
----------------------------|
----------------------------|
----------------------------|
-:----:----:----:----9------|
-8----8----8----8----7------|
---00---00---00---00--------| comtinued from above riff
   ..   ..   ..   .. let ring abit
: = 10

-----------------------|
-----------------------|
-----------------------|
---5-3-3-2---5-3-2-3---|
-0-3-1-----0-3-1-------|
-0---------0-----------|
       trem      ...
let the power chords ring!

-------------------------------------------------------------------|
-------------------------------------------------------------------|
-------------------------------------------------------------------|
-7----7----7----7----9----9----9----9----12----12----12----12------|
-5----5----5----5----7----7----7----7----10----10----10----10------|
---00---00---00---00---00---00---00---00----00----00----00----00---|
   pm   ..   ..   ..   ..   ..   ..   ..    ..    ..    ..    ..
----------------------------|
----------------------------|
----------------------------|
-:----:----:----:----:------|
-8----8----8----8----8------|
---00---00---00---00--------| comtinued from above riff
   ..   ..   ..   .. let ring abit
: = 10

-------------------------------------------------------------------|
-------------------------------------------------------------------|
-------------------------------------------------------------------|
-7----7----7----7----9----9----9----9----12----12----12----12------|
-5----5----5----5----7----7----7----7----10----10----10----10------|
---00---00---00---00---00---00---00---00----00----00----00----00---|
   pm   ..   ..   ..   ..   ..   ..   ..    ..    ..    ..    ..
----------------------------|
----------------------------|
----------------------------|
-:----:----:----:----9------|
-8----8----8----8----7------|
---00---00---00---00--------| comtinued from above riff
   ..   ..   ..   .. let ring abit
: = 10

-----------------------------------|
-----------------------------------|
-----------------------------------|
-----0-------0--------3-----0------|
---0---0---0---0----0-----0---0----|
-0-------3-------1/2----1----------|X2

-------------------------------------|
-------------------------------------|
-------------------------------------|
-------------------------------------|
-0-000-0-3-333-3-2-222-2-1-111-1-1---|
-0-000-0-3-333-3-2-222-2-1-111-1-ph--|X4 only does the ph on 2nd time
 pm...   .....   .....   .....

------------------------------------------------------------------|
------------------------------------------------------------------|
------------------------------------------------------------------|
-7-------------------8------:---7--------------------8------6-----|
-5--------7\8/7------6------8---5---------7\8/7------6------4-----|
---000000-------0000---0000-------0000000-------0000---0000-------|X2
   pm....       ....   ....       .......       ....   ....
this isnt the exact same rythm
: = 10
-------------------------------------|
-------------------------------------|
-------------------------------------|
-------------------------------------|
-0-000-0-3-333-3-2-222-2-1-111-1-1---|
-0-000-0-3-333-3-2-222-2-1-111-1-ph--|X4 only does the ph on 2nd time
 pm...   .....   .....   .....

------------------------------------------------------------------|
------------------------------------------------------------------|
------------------------------------------------------------------|
-7-------------------8------:---7--------------------8------6-----|
-5--------7\8/7------6------8---5---------7\8/7------6------4-----|
---000000-------0000---0000-------0000000-------0000---0000-------|X2
   pm....       ....   ....       .......       ....   ....
this isnt the exact same rythm
: = 10

---------------|
---------------|
---------------|
-7-------------|
-5-------------|
-whammy bar----

--------------------------------------------------------------|
--------------------------------------------------------------|
--------------------------------------------------------------|
--------------------------------------------------------------|
-000-000-000-000-000-000-000-000-0-000-000-000-6-6-6-1-5-\----|
-000-000-000-000-000-000-000-000-0-000-000-000-6-6-6-1-5-\----|
 pm.............................   ...........

--------------------------------------------------------------------------------|
--------------------------------------------------------------------------------|
--------------------------------------------------------------------------------|
--------------------------------------------------------------------------------|
-000-000-000-000-5-5-5-1-0-000-000-000-000-6-6-6-1-5-\-000-000-000-000----------|
-000-000-000-000-5-5-5-1-0-000-000-000-000-6-6-6-1-5-\-000-000-000-000-6-8-7-5--|
 ...............           ...............             ............... trem...

---------------------------------------------------------------------------------|
---------------------------------------------------------------------------------|
---------------------------------------------------------------------------------|
---------------------------------------------------------------------------------|
-000-000-000-000-6-6-6-1-5-000-000-000-000-5-5-5-1-0-000-000-000-000-6-6-6-1-5-\-|
-000-000-000-000-6-6-6-1-5-000-000-000-000-5-5-5-1-0-000-000-000-000-6-6-6-1-5-\-|
 ...............           ...............           ...............

------------------------|
------------------------|
------------------------|
------------------------|
-000-000-000-000--------|
-000-000-000-000-6-8-10-|
 ............... trem..

--------------------------------------------------------------|
--------------------------------------------------------------|
--------------------------------------------------------------|
--------------------------------------------------------------|
-000-000-000-000-000-000-000-000-0-000-000-000-6-6-6-1-5-\----|
-000-000-000-000-000-000-000-000-0-000-000-000-6-6-6-1-5-\----|
 pm.............................   ...........

--------------------------------------------------------------------------------|
--------------------------------------------------------------------------------|
--------------------------------------------------------------------------------|
--------------------------------------------------------------------------------|
-000-000-000-000-5-5-5-1-0-000-000-000-000-6-6-6-1-5-\-000-000-000-000----------|
-000-000-000-000-5-5-5-1-0-000-000-000-000-6-6-6-1-5-\-000-000-000-000-6-8-7-5--|
 ...............           ...............             ............... trem...

---------------------------------------------------------------------------------|
---------------------------------------------------------------------------------|
---------------------------------------------------------------------------------|
---------------------------------------------------------------------------------|
-000-000-000-000-6-6-6-1-5-000-000-000-000-5-5-5-1-0-000-000-000-000-6-6-6-1-5-\-|
-000-000-000-000-6-6-6-1-5-000-000-000-000-5-5-5-1-0-000-000-000-000-6-6-6-1-5-\-|
 ...............           ...............           ...............

------------------------|
------------------------|
------------------------|
------------------------|
-000-000-000-000--------|
-000-000-000-000-6-8-10-|
 ............... trem..

-------------------------------------------------------------------------|
-------------------------------------------------------------------------|
-------------------------------------------------------------------------|
-7-777-7-777-7-777-7-777-5-555-5-555-4-444-4-444-3-333-3-333-3-333-3-333-|
-5-555-5-555-5-555-5-555-3-333-3-333-2-222-2-222-1-111-1-111-1-111-1-111-|
-------------------------------------------------------------------------|
   pm.   ...   ...   ...   ...   ...   ...   ...   ...   ...   ...   ...
-----------------|
-----------------|
-----------------|
-----------------|
-6-66-6-5-55-5---|
-6-66-6-5-55-5---|X2 continued from above riff
   ..     ..
   not 2 sure bout this part(A*)
---3--2--------3---3--------------3--2-----3-----3-------------|
----1--1---------3---3-------------1--1------3-----3-----------|
-----0--0---------0---0-------------0--0-------0----0----------|
-----------5------------3-3-2------------5------------3-2-3----|
-0---------3------------1-------0--------3------------1--------|
-0------------------------------0------------------------------|
                          trem                          trem

-----------------------|
-----------------------|
-----------------------|
---5-3-3-2---5-3-2-3---|
-0-3-1-----0-3-1-------|
-0---------0-----------|
       trem      ...
let the power chords ring!

-------------------------------------------------------------------|
-------------------------------------------------------------------|
-------------------------------------------------------------------|
-7----7----7----7----9----9----9----9----12----12----12----12------|
-5----5----5----5----7----7----7----7----10----10----10----10------|
---00---00---00---00---00---00---00---00----00----00----00----00---|
   pm   ..   ..   ..   ..   ..   ..   ..    ..    ..    ..    ..
----------------------------|
----------------------------|
----------------------------|
-:----:----:----:----:------|
-8----8----8----8----8------|
---00---00---00---00--------| comtinued from above riff
   ..   ..   ..   .. let ring abit
: = 10

-------------------------------------------------------------------|
-------------------------------------------------------------------|
-------------------------------------------------------------------|
-7----7----7----7----9----9----9----9----12----12----12----12------|
-5----5----5----5----7----7----7----7----10----10----10----10------|
---00---00---00---00---00---00---00---00----00----00----00----00---|
   pm   ..   ..   ..   ..   ..   ..   ..    ..    ..    ..    ..
----------------------------|
----------------------------|
----------------------------|
-:----:----:----:----9------|
-8----8----8----8----7------|
---00---00---00---00--------| comtinued from above riff
   ..   ..   ..   .. let ring abit
: = 10

-----------------------|
-----------------------|
-----------------------|
---5-3-3-2---5-3-2-3---|
-0-3-1-----0-3-1-------|
-0---------0-----------|
       trem      ...
let the power chords ring!

-------------------------------------------------------------------|
-------------------------------------------------------------------|
-------------------------------------------------------------------|
-7----7----7----7----9----9----9----9----12----12----12----12------|
-5----5----5----5----7----7----7----7----10----10----10----10------|
---00---00---00---00---00---00---00---00----00----00----00----00---|
   pm   ..   ..   ..   ..   ..   ..   ..    ..    ..    ..    ..
----------------------------|
----------------------------|
----------------------------|
-:----:----:----:----:------|
-8----8----8----8----8------|
---00---00---00---00--------| comtinued from above riff
   ..   ..   ..   .. let ring abit
: = 10

-------------------------------------------------------------------|
-------------------------------------------------------------------|
-------------------------------------------------------------------|
-7----7----7----7----9----9----9----9----12----12----12----12------|
-5----5----5----5----7----7----7----7----10----10----10----10------|
---00---00---00---00---00---00---00---00----00----00----00----00---|
   pm   ..   ..   ..   ..   ..   ..   ..    ..    ..    ..    ..
----------------------------|
----------------------------|
----------------------------|
-:----:----:----:----9------|
-8----8----8----8----7------|
---00---00---00---00--------| comtinued from above riff
   ..   ..   ..   .. let ring abit
: = 10

---------------------------------------------------------------------|
---------------------------------------------------------------------|
---------------------------------------------------------------------|
-7-7-7-7-5-5-5-5-5-5-5-5-3-3-3-3---7-7-7-7-5-5-5-5-5-5-5-5-3-3-3-3---|
-5-5-5-5-3-3-3-3-3-3-3-3-1-1-1-1---5-5-5-5-3-3-3-3-3-3-3-3-1-1-1-1---|
---------------------------------------------------------------------|

------------------------------------------------------------------|
------------------------------------------------------------------|
------------------------------------------------------------------|
------------------------------------------------------------------|
-888-888-888-888-777-777-777-777-777-777-777-777-555-555-555-555--|
------------------------------------------------------------------|

------------------------------------------------------------------|
------------------------------------------------------------------|
------------------------------------------------------------------|
------------------------------------------------------------------|
-888-888-888-888-:::-:::-:::-:::-777-777-777-777-555-555-555-555--|
------------------------------------------------------------------|

-----------------------------------|
-----------------------------------|
-----------------------------------|
-----0-------0--------3-----0------|
---0---0---0---0----0-----0---0----|
-0-------3-------1/2----1----------|
Until faded out





Comments


Popular Immortal tabs & chords
Where Dark And Light Dont Differ Bass Tabs
Battles In The North Tabs
Damned In Black Tabs
Descent Into Eminent Silence Tabs
In My Kingdom Cold 1 Tabs
My Demension Tabs
My Demension 1 Tabs
Sons Of Northern Darkness 1 Tabs
Sons Of Northern Darkness 2 Tabs
The Darkness That Embrace Me 1 Tabs


Song lyrics



↑ Back to top | Tablatures and chords are parodies/interpretations of the original songs. You may use it for private study, scholarship, research or language learning purposes only
© 2014 AZChords.com Contact us | Privacy policy | DMCA | Add/correct tabs | Request tabs | Top 50 tabs