» » »

Immortal, Descent Into Eminent Silence Tabs (ver.1)

Artists:  A B C D E F G H I J K L M N O P Q R S T U V W X Y Z # 

Descent Into Eminent Silence Tabs (ver.1)

Immortal Tabs
 Rating:
3.6/5 (5 votes)
Descent Into Eminent Silence lessons Tabs too difficult? Try these video lessons and learn fast
                #------------------------------------PLEASE  NOTE-----------------------------------------------#

G: Immortal -  Descent Into Eminent Silence



Band   Immortal



. - palm mute / - slide up to
 - slide down to ~ - vibrato
h - hammer on p - pull off
, - slight palm mute [] - second time around
" " tremolo note <> - Trill

Suffixes for bend
f - full bend h - half bend
ph - pinched harmonic q - quarter bend
t - tap bend * - see comment
^ - Hold bend r - release bend
x – Staccato ~ - vibrato bend

Tuning E A D G B E


Riff 1
|-----------------------------------------|
|-----------------------------------------|
|-----------------------------------------|
|----------------------3---1----[/4]------|
|--2---2-2-2--2-2-2----3---1----[/4]------|
|--2---0-0-0--0-0-0----"---"------"-------|
   .   . . .  . . .                     x4

Riff 2
|---------------------------------------------------|
|---------------------------------------------------|
|----------0--3-------------------------------------|
|--2---3---"--"----5--0---------2---3----3----5-----|
|--0---1-----------"--"---3-----0---1----3----5-----|
|--"---"------------------"-----"---"----"----"-----|
                                                  x2
Play Riff 1 x 2

Riff 3
|--------------------------|
|--------------------------|
|--------------------------|
|---5----3-----------------|
|---5----5------5----------|
|---"----"------5----------|
                "
------------------------|
------------------------|
------------------------|
---5----3---------------|
---5----5----1----------|
---"----"----3----------|
             "        x6
Riff 4
|---------------------------------------|
|---------------------------------------|
|----------0----------------------------|
|--0---2---"----2----3---0--------------|
|--"---"--------"----"---"---3----5-----|
|----------------------------"----"-----|

---------------------------------------------|
---------------------------------------------|
---------0-----------------------------------|
--0--2-----2---3p-2-2--3-p2-2-------0--------|
--"--"-----"---"--"-"--"--"-"---3---"--3-----|
--------------------------------"------"-----|
                                            x2
Play Riff 3 x 2

Play Riff 4 x 2

Riff 5
|------------------------------------------|
|------------------------------------------|
|------------5-----------------------------|
|------------4--------2--------------------|
|--2----3----"---2----0----4---------------|
|--0----0--------0---------3---------------|
    "   "        "    "    "              x2
Play Riff 1 x 2

Play Riff 2 x 2

Play Riff 1 x 2

Play Riff 3

Play Riff 4 x 2

Fill 1
-------------------------------------|
-------------------------------------|
-------------------------------------|
--2----2-----0----2---2--------------|
--0----2-----0----0---2---2----4-----|
--"----"-----"----"---"---2----4-----|
                          "    "    x2
Play Riff 5 x 4

Outro
-------------------------------------|
-------------------------------------|
-------------------------------------|
--2----2-----0----2---2--------------|
--0----2-----0----0---2---3--3-3--2--|
--"----"-----"----"---"---1--1-1--0--|
                          .  . .
            
Submit corrections

comments powered by Disqus
↑ Back to top | Immortal Tabs for Descent Into Eminent Silence. Lyrics for acoustic guitar and electric guitar. Tablatures and chords are parodies/interpretations of the original songs. You may use it for private study, scholarship, research or language learning purposes only