» » »

Damned In Black Tabs (ver.2)

Artists:  A B C D E F G H I J K L M N O P Q R S T U V W X Y Z # 

Damned In Black Tabs (ver.2)

Immortal
Rating:
5/5 (1 vote)

Tabs too difficult? Try these video lessons and learn fast.
                

/ The following is the author's own interpretation of the song, to be used -
/ for studying or private use only, removal of any part of this ten line   -
/ place inwhich the tab was downloaded. Publishing as well as printing of  -
/ owner of the song. Failure to apply to these laws result will in legal   -
/ action from the appropriate parties.                                     -

Immortal-Damned In Black
Triumph-2000 Osmose Productions

Standard Tuning 

 Intro                                           Pick slide
|---------------------------------------------------------|Gtr 
|---------------------------------------------------------| I
|-3-2-----------------------------3-----------------------|
|-1-0-000-000-000-000-000-000-000-1-000-000-000--x\-------|   
                                                 

 Riff 1
|---------------------------------------------------------------|Gtr
|-------------------------5544-------------------------6655-----| I
|-3-2---------------------3322-3-2---------------------4433-3-2-|
|-1-0-000-000-000-000-000------1-0-000-000-000-000-000------1-0-|


 Riff 2
|---------------------------------|
|-7/8-----8\7-7/8-----7/8-8\5-5/7-|
|---------------------------------|
|-5/6-000-6\5-5/6-000-5/6-6\3-3/5-|

 
 Riff 3
|-----------------------------------------------------------------|
|-7/8-----8\7-7/8-----7/8-8\5-5/7-7/8-----8\7-7/8-----7/8---------|
|---------------------------------------------------------8\5-5\3-|
|-5/6-000-6\5-5/6-000-5/6-6\3-3/5-5/6-000-6\5-5/6-000-5/6-6\3-3\1-|


 Riff 4
|--------------------------------------------------------------------------|
|---5-4------4-3-------5\4-------4\3------5-4------4-3-------5\4-------4\3-|
|-2-3-2------2-1-------3\2-------2\1------3-2------2-1-----4-3\2-----3-2\1-|
|-0-----0000-----00000-----00000-----0000-----0000-----22222-----11111-----|


 Riff 5                                                  1--------------------| 2-------------|
|-------------------------------------------------------|-7/8-8-------11/1212-|---------------|
|-------------------------------------------------------|---------------------|---------------|
|-2--7----5----4----7----5----4----5 \ 4-2--7----5----4-|-5/6-6-------9/10-10-|-2-0---------2-|
|-0--5-00-3-00-2-00-5-00-3-00-2-00-3 \ 2-0--5-00-3-00-2-|-------0-000---------|-----3-2-3-2-0-|


 Riff 5                                                  1, 3-----------------| 2-------------------|
|-------------------------------------------------------|-7/8-8-------11/1212-|-7/8-8-------8\5-5/8-|
|-------------------------------------------------------|---------------------|---------------------|
|-2--7----5----4----7----5----4----5 \ 4-2--7----5----4-|-5/6-6-------9/10-10-|-5/6-6-------6\3-3/6-|
|-0--5-00-3-00-2-00-5-00-3-00-2-00-3 \ 2-0--5-00-3-00-2-|-------0-000---------|-------0-000---------|


 4
|------------------------------|
|------------------------------|
|-2-0---------2----2-0---------|
|-----3-2-3-2-0--------3-2-3-2-|


 Riff 6 1,3 2---------------------|      4---------------------------|
|---------|-----------------------------|-----------------------4a.h.-|
|-----9-9-|-----------------------2a.h.-|-----------------------------|
|-----7-7-|-5--5-5--55-3--3-3--33-------|-5--5-5--55-3--3-3--33-------|
|-000-----|-3--3-3--33-1--1-1--11-------|-3--3-3--33-1--1-1--11-------|

 Riff 7
|-----------------------|
|-----------------------|
|-5--5-5--55-8--8-8--88-|
|-3--3-3--33-6--6-6--66-|

 Riff 8                  1--------------------| 2----------------------|
|-----------------------|-5-----5-----5-----5-|------------------------|
|-----------------------|-5-----5-----5-----5-|-------------------5p4--|
|-----------------------|---------------------|------------------------|
|-3-333-6p3-3-3-333-6p3-|---333---333---333---|-2-222-2-222-2-222------|

Notation:
\-slide down
/-slide up
p-pull off
h-hammer on
a.h.-artificial harmonic
            
Tabs too difficult? Try these video lessons and learn fast.




comments powered by Disqus
↑ Back to top | Tablatures and chords are parodies/interpretations of the original songs. You may use it for private study, scholarship, research or language learning purposes only