» » »

Immortal, Damned In Black Tabs (ver.1)

Artists:  A B C D E F G H I J K L M N O P Q R S T U V W X Y Z # 

Damned In Black Tabs (ver.1)

Immortal Tabs
Rating:
1/5 (2 votes)
Damned In Black lessons Tabs too difficult? Try these video lessons and learn fast
                cancion:Damned In Black
Interprete:Immortal
Album:Damned In Black
Tab Por Gabriel Gonzalez - Chile 

|-----------------|
|-----------------|
|--(9)------------|
|--(9)---(2)------|
|--(7)---(2)---\--|
|--------(0)---\--|
Riff 1                                             1               2
|-----------------------------------------|----------------|----------------|
|-----------------------------------------|----------------|----------------|
|9-99999-9/16-1616161616-16\14-1414141414-|14/17-1717171717|14/19-1919191919|
|x-xxxxx-x/x--x-x-x-x-x--x-\x--x-x-x-x-x--|x-/x--x-x-x-x-x-|x-/x--x-x-x-x-x-|
|7-77777-7/14-1414141414-14\12-1212121212-|12/15-1515151515|12/17-1717171717|
|-----------------------------------------|----------------|----------------|

Verso 1
|-----------------------------------|
|-----------------------------------|
|--------------5555555/7777777--9-9-|
|-22-----------xxxxxxx/xxxxxxx--9-9-|
|-22-----------3333333/5555555--7-7-|
|-00-000000000----------------------|
     .........
Verso 2
|---------------------------------------|-------------------------------|
|---------------------------------------|-------------------------------|
|---------------------------------------|---------------7---------------|
|-10-----9---10---7---9----------7------|-10---9---10-------10---9--999-|
|----777--777--777-777-777-10-777-777-9-|---777-777--777-777--777---777-|
|---------------------------------------|---------------------------000-|
     ...  ...  ... ... ...    ... ...       ... ...  ... ...  ...   
 Otro   
     1 y  2                   3                    4
|----------------------|-----------------------|------------------------|
|----------------------|-----------------------|------------------------|
|----------------------|-----------------------|------------------------|
|----------------------|-----------------------|------------------------|
|--------------6--7--6-|---------------6--7--6-|---------------6--7--6--|
|--005h6p5p0-00-00-00--|--003h4p3p0-00--00-00--|--003h4p3p0-00--00------|
             .. .. ..               ..  .. ..               ..  ..
Corte (Con Electrica)
|---------------|-----------------------------------------------|
|---------------|-----------------------------------------------|
|-1-1-1-0-2222--|-1-1-1-0-2222--2-22-22-22-22--------------4+---|
|---------2222--|---------2222--2-22-22-22-22-----333222--------|
|---------0000--|---------0000--1-00-11-00-11-000-------333-----|
|---------------|-----------------------------------------------|
                                                  
|---------------------------|
|---------------------------|
|--5555555-444444-333333-2--|
|--xxxxxxx-xxxxxx-xxxxxx-2--|
|--3333333-222222-111111-0--|
|---------------------------|

Fin Corte
|--------------|
|--------------|
|-(9)---9------|
|-(9)---x----2-|             (2)
|-(7)---7----2-| Con tremolo:(2)
|------------0-|             (0)

Se repite el principio
            

comments powered by Disqus
↑ Back to top | Immortal Tabs for Damned In Black. Lyrics for acoustic guitar and electric guitar. Tablatures and chords are parodies/interpretations of the original songs. You may use it for private study, scholarship, research or language learning purposes only