>
 >
Beyond The North Waves

Beyond The North Waves Guitar Tabs

Immortal - Beyond The North Waves chords, tabs, tablatures, lyrics

Guitar lessons | Add/correct | Request | Top 50 tabs Artists:  A B C D E F G H I J K L M N O P Q R S T U V W X Y Z 0-9

Beyond The North Waves Guitar Tabs – Immortal

CD, Sheet music, Poster

Do you like Beyond The North Waves? Share with your friends now
ChordsTabsTabs v2Ukulele
band - immortal
song - beyond the north waves
album - sons of northern darkness
tuning - d,g,c,f,a,d,

all music & lyrics by - abbath,horgh,demonaz

 this is 100% correct. ive written the riffs but then structured them to
 make it easier than writing them out and all the different ends enjoy.


* - palm mute
/ - slide
" - tremelo pick
~ - let note ring
h - hammer on
p - pull off


   intro (clean)

d------------------------]-----------------------------]
a--8h10~--8h10~--6h8-----]--8h10~--8h10~--6h8----------]
f--7------7------7--9~---]--7------7------7--9~----7~--]
c--0------0------0-------]--0------0------0--------0~--]
g------------------------]-----------------------------]
d------------------------]-----------------------------]


d---------]--10--7--6h7p6------]---------]--10--7--6h7p6----]
a--8h10~--]--8---8--8----8-----]--8h10~--]--8---8--8----8~--]
f--7------]--7---7-------------]--7------]--7---7-----------]
c--0------]--0---0---------0~--]--0------]--0---0-----------]
g---------]--------------------]---------]------------------]
d---------]--------------------]---------]------------------]


d----------------]--10--8--6~--]
a--8h10~--8h10~--]--10--8--8~--]
f--7------7------]--7---7--7~--]  (DISTORTED GUITAR VOULUME SWELLS IN)
c--0------0------]--0---0--0~--]
g----------------]-------------]
d----------------]-------------]


(intro 2)riff 1      end 1             end 2                 end 3
d--------------x8]----------]-------------------------------]------5~--]
a----------------]----------]-------------------------------]------5~--]
f--7-7777-5/5-5--]--10"-9"--]-------------------------------]------5~--]
c--7-7777-5/5-5--]--8"--7"--]--10--101010--1010--5-555-5-5--]--7~--7~--]
g--5-5555-3/3-3--]----------]--8---8-8-8---8-8---3-333-3-3--]--5~------]
d----------------]----------]--8---8-8-8---8-8---3-333-3-3--]--5~------]
                                   * * *           ***


intro 2 structure

riff 1 x8 - end 1
riff 1 x4 - end 1
riff 1 x2 - end 2
riff 1 x2 - end 2
end 3


verse structure

riff 1 x4 - end 1
riff 1 x6 - end 1
riff 1 x2 - end 2
riff 1 x2 - end 2
end 3

riff 1 x4 - end 1
riff 1 x6 - end 1
riff 1 x2 - end 2
riff 1 x2 - end 2
riff 1 x2 - end 2
end 2
end 3



  interlude (part 1)

d------------------------------------------]
a------------------------------------------]
f------------------------------------------]
c------5"-------6"--------5"-------6"--7"--]
g------7"----77-7"--------7"----77-7"--8"--]
d--0-7-------77-------0-7-------77---------]
             **                 **

  (part 2)
d--------------]-------------]------------------]--------------]-----------]
a--------------]-------------]------------------]--------------]-----------]
f--------------]-------------]------------------]--------------]-----------]
c--5"----------]--5"---------]--8"--7"--8"--5"--]--6"----------]--5"-------]
g--------------]-------------]------------------]--------------]-----------]
d--------------]-------------]------------------]--------------]-----------]

 part 1 x2
 part 2 x2


  (part 3) x2
d------------------------------------------------]
a-------------8--6--4-----------------8--6---4~--]
f----------7---7--5--5-------------7---7--5--5~--]
c--5/7--7--7----7--5--5----5/7--7--7----7--5-----]
g--3/5--5--5---------------3/5--5--5-------------]
d--3/5--5--5---------------3/5--5--5-------------]
        *                       *

  (part 4) x4

d--3/5-5-5~--6--6--6----]
a-------------8--5--6~--]
f-----------------------]
c-----------------------]
g-----------------------]
d-----------------------]

                              
part 3 x2
part 4 x4
part 3 x2


 next part

riff 1 x4 - end 1
riff 1 x2 - end 1
riff 1 x2 - end 2
riff 1 x2 - end 2
riff 1 x2 - end 2
end 2


  end chord
d--------]
a--------] (sorry no solo yet,but im working on it and ill post it later)
f--------]
c--7"----]
g--5"----]
d--5"----]




 thats it please rate its a pretty easy song,again sorry if the sructuring
 threw you off but i put it as simple as possible.and it saves me writing
 the riffs over & over again.





Comments


Popular Immortal tabs & chords
Beyond The North Waves Chords
A Sign For The North Horde To Ride Tabs
Battles In The North Tabs
Blizzard Beasts Tabs
Damned In Black 1 Tabs
Mountains Of Might Tabs
One By One 1 Tabs
Pure Holocaust Tabs
Tyrants Tabs
Where Dark And Light Don't Differ Tabs


Song lyrics



↑ Back to top | Tablatures and chords are parodies/interpretations of the original songs. You may use it for private study, scholarship, research or language learning purposes only
© 2014 AZChords.com Contact us | Privacy policy | DMCA | Add/correct tabs | Request tabs | Top 50 tabs