» » »

Immortal, At The Heart Of Winter Tabs (ver.2)

Artists:  A B C D E F G H I J K L M N O P Q R S T U V W X Y Z # 

At The Heart Of Winter Tabs (ver.2)

Immortal Tabs
Rating:
0/5 (0 votes)
Hard to play? Try these video lessons and learn fast.
                (Intro)

                        ---AT THE HEART OF WINTER---
                                  ( 1999 )
                                ( Track 5  )
                                  IMMORTAL

Transcribbed by ; MorTeM

Tempo=120

Horgh - Drums
Abbath - Music
Demonaz - Lyrics


     W                   W                   W
E||-------------------|-------------------|-------------------|
B||-------------------|-------------------|-------------------|
G||-------------------|-------------------|-------------------|
D||-------------------|-------------------|-------------------|
A||-------------------|-------------------|-------------------|
E||-------------------|-------------------|-------------------|


  W                   W                   W
-------------------|-------------------|-------------------|
-------------------|-------------------|-------------------|
-------------------|-------------------|-------------------|
-------------------|-------------------|-------------------|
-------------------|-------------------|-------------------|
-------------------|-------------------|-------------------|


    ^
         |--3--|  |--3--|  |--3--|     |--3--|  |--3--|  |--3--|  |--3--|
    Q    E  E  E  E  E  E  E  E  E     E  E  E  E  E  E  E  E  E  E  E  E
|-----------------------------------|--4--------4--------4--------4--------|
|---5----5--------4--------7--------|-----5--------5--------5--------5-----|
|*--6-------6--------6--------4-----|--------6--------6--------6--------6--|
|*--6----------6--------6--------6--|--------------------------------------|
|---4-------------------------------|--------------------------------------|
|-----------------------------------|--------------------------------------|


  ^
       |--3--|  |--3--|  |--3--|     |--3--|  |--3--|  |--3--|  |--3--|
  Q    E  E  E  E  E  E  E  E  E     E  E  E  E  E  E  E  E  E  E  E  E
----------------------------------|---------------------------------------||
--5----5--------4--------7--------|--5--------5--------4--------4---------||
--6-------6--------6--------4-----|-----4--------4--------4--------4-----*||
--6----------6--------6--------6--|--------6--------6--------6--------6--*||
--4-------------------------------|---------------------------------------||
----------------------------------|---------------------------------------||


  ^
       |--3--|  |--3--|  |--3--|     |--3--|  |--3--|  |--3--|  |--3--|
  Q    E  E  E  E  E  E  E  E  E     E  E  E  E  E  E  E  E  E  E  E  E
----------------------------------|--4--------4--------4--------4--------|
--5----5--------4--------7--------|-----5--------5--------5--------5-----|
--6-------6--------6--------4-----|--------6--------6--------6--------6--|
--6----------6--------6--------6--|--------------------------------------|
--4-------------------------------|--------------------------------------|
----------------------------------|--------------------------------------|


  ^                                                    ^
       |--3--|  |--3--|  |--3--|     |--3--|  |--3--|
  Q    E  E  E  E  E  E  E  E  E     E  E  E  E  E  E  H
----------------------------------|-----------------------------|
--5----5--------4--------7--------|--5--------5--------4--------|
--6-------6--------6--------4-----|-----4--------4-----4--------|
--6----------6--------6--------6--|--------6--------6--6--------|
--4-------------------------------|--------------------4--------|
----------------------------------|-----------------------------|


                                          ^
                                               |--3--|  |--3--|  |--3--|
  W                   W                   Q    E  E  E  E  E  E  E  E  E
-------------------|-------------------|----------------------------------|
-------------------|-------------------|----------------------------------|
-------------------|-------------------|----------------------------------|
-------------------|-------------------|--8----8--------8--------8--------|
-------------------|-------------------|--6-------6--------6--------6-----|
-------------------|-------------------|--0----------6--------6--------6--|


  |--3--|  |--3--|  |--3--|  |--3--|     |--3--|  |--3--|  |--3--|  |--3--|
  E  E  E  E  E  E  E  E  E  E  E  E     E  E  E  E  E  E  E  E  E  E  E  E
--------------------------------------|--------------------------------------|
--------------------------------------|--------------------------------------|
--------------------------------------|--------------------------------------|
--9--------9--------9--------9--------|--8--------8--------8--------8--------|
-----7--------7--------7--------7-----|-----6--------6--------6--------6-----|
--------7--------7--------7--------7--|--------6--------6--------6--------6--|


  |--3--|  |--3--|  |--3--|  |--3--|     |--3--|  |--3--|  |--3--|  |--3--|
  E  E  E  E  E  E  E  E  E  E  E  E     E  E  E  E  E  E  E  E  E  E  E  E
--------------------------------------|--------------------------------------|
--------------------------------------|--------------------------------------|
--------------------------------------|--------------------------------------|
--9--------9--------8--------8--------|--8--------8--------8--------8--------|
-----7--------7--------6--------6-----|-----6--------6--------6--------6-----|
--------7--------7--------6--------6--|--------6--------6--------6--------6--|


  |--3--|  |--3--|  |--3--|  |--3--|
  E  E  E  E  E  E  E  E  E  E  E  E
--------------------------------------|
--------------------------------------|
--------------------------------------|
--9--------9--------9--------9--------|
-----7--------7--------7--------7-----|
--------7--------7--------7--------7--|


   |---3---|   |---3---|   |---3---|   |---3---|
   E   E   E   E   E   E   E   E   E   E   E   E
--------------------------------------------------|
--------------------------------------------------|
--------------------------------------------------|
--13----------13----------13----------13----------|
------11----------11----------11----------11------|
----------11----------11----------11----------11--|


  |--3--|  |--3--|   |--3--|  |--3--|     |--3--|  |--3--|  |--3--|  |--3--|
  E  E  E  E  E  E   E  E  E  E  E  E     E  E  E  E  E  E  E  E  E  E  E  E
---------------------------------------|-------------------------------------|
---------------------------------------|-------------------------------------|
---------------------------------------|-------------------------------------|
--9--------9--------11--------9--------|--8--------8--------8--------8-------|
-----7--------7---------9--------7-----|-----6--------6--------6--------6----|
--------7--------7---------9--------7--|--------6--------6--------6--------6-|


  |--3--|  |--3--|  |--3--|  |--3--|     |--3--|  |--3--|  |--3--|  |--3--|
  E  E  E  E  E  E  E  E  E  E  E  E     E  E  E  E  E  E  E  E  E  E  E  E
--------------------------------------|--------------------------------------|
--------------------------------------|--------------------------------------|
--------------------------------------|--------------------------------------|
--9--------9--------9--------9--------|--8--------8--------8--------8--------|
-----7--------7--------7--------7-----|-----6--------6--------6--------6-----|
--------7--------7--------7--------7--|--------6--------6--------6--------6--|


  |--3--|  |--3--|  |--3--|  |--3--|     |--3--|  |--3--|  |--3--|  |--3--|
  E  E  E  E  E  E  E  E  E  E  E  E     E  E  E  E  E  E  E  E  E  E  E  E
--------------------------------------|--------------------------------------|
--------------------------------------|--------------------------------------|
--------------------------------------|--------------------------------------|
--9--------9--------8--------8--------|--8--------8---------8--------8-------|
-----7--------7--------6--------6-----|-----6--------6--------6--------6-----|
--------7--------7--------6--------6--|--------6--------6--------6--------6--|


  |--3--|  |--3--|  |--3--|  |--3--|
  E  E  E  E  E  E  E  E  E  E  E  E
--------------------------------------|
--------------------------------------|
--------------------------------------|
--9--------9--------9--------9--------|
-----7--------7--------7--------7-----|
--------7-------7---------7--------7--|


                                             ^
   |--3--|   |--3--|   |--3--|   |--3--|
   E  E  E   E  E  E   E  E  E   E  E  E     W
------------------------------------------|-------------------|
------------------------------------------|-------------------|
------------------------------------------|-------------------|
--11--------11--------11--------11--------|--6----------------|
------9---------9---------9---------9-----|--4----------------|
---------9---------9---------9---------9--|--4----------------|

 Enjoy !
            

comments powered by Disqus
↑ Back to top | Immortal Tabs for At The Heart Of Winter. Lyrics for acoustic guitar and electric guitar. Tablatures and chords are parodies/interpretations of the original songs. You may use it for private study, scholarship, research or language learning purposes only