» » »

Immortal, A Perfect Vision Of The Rising Northland Tabs (ver.1)

Artists:  A B C D E F G H I J K L M N O P Q R S T U V W X Y Z # 

A Perfect Vision Of The Rising Northland Tabs (ver.1)

Immortal Tabs
Rating:
1/5 (1 vote)
A Perfect Vision Of The Rising Northland lessons Tabs too difficult? Try these video lessons and learn fast
                -----------------------------------------------------------------------------
-----------------------------------------------------------------------------

Tuning:Standard

Riff 1
The rhythm is Down-Down/Up/Down-Down/Up-Down-Down-Down-Down/Up/ in this point 
change Chord and restard the rhythm

e|--0-000-00-0-0-0-000-000-00-0-0-0-000-000-00-0-0-0-000-000-00-0-0-0-00-----|
B|--0-000-00-0-0-0-001-111-11-1-1-1-110-000-00-0-0-0-001-111-11-1-1-1-11-----|
G|--0-000-00-0-0-0-000-000-00-0-0-0-000-000-00-0-0-0-002-222-22-2-2-2-22-----|
D|--2-222-22-2-2-2-222-222-22-2-2-2-222-222-22-2-2-2-222-222-22-2-2-2-22-----|
A|--2-222-22-2-2-2-223-333-33-3-3-3-332-222-22-2-2-2-220-000-00-0-0-0-00-----|
E|--0-000-00-0-0-0-000-000-00-0-0-0-000-000-00-0-0-0-000-000-00-0-0-0-00-----|

Riff 2
The second riff finish with this difference: Down-Down-Down/Up chance chord and Down-Down-Down/Up

e|--0-000-00-0-0-0-000-000-00-0-0-0-000-000-00-0-0-0-00\0-0-000-0-00---------|
B|--0-000-00-0-0-0-001-111-11-1-1-1-110-000-00-0-0-0-00\2-2-221-1-11---------|
G|--0-000-00-0-0-0-000-000-00-0-0-0-000-000-00-0-0-0-00\3-3-332-2-22---------|
D|--2-222-22-2-2-2-222-222-22-2-2-2-222-222-22-2-2-2-22\0-0-002-2-22---------|
A|--2-222-22-2-2-2-223-333-33-3-3-3-332-222-22-2-2-2-22\0-0-000-0-00---------|
E|--0-000-00-0-0-0-000-000-00-0-0-0-000-000-00-0-0-0-00\0-0-000-0-00---------|

Riff 1A

e|--0-000-00-0-0-0-000-000-00-0-0-0-000-000-00-0-0-0-000-000-00-0-0-0-00-----|
B|--0-000-00-0-0-0-001-111-11-1-1-1-110-000-00-0-0-0-001-111-11-1-1-1-11-----|
G|--0-000-00-0-0-0-000-000-00-0-0-0-000-000-00-0-0-0-002-222-22-2-2-2-22-----|
D|--2-222-22-2-2-2-222-222-22-2-2-2-222-222-22-2-2-2-222-222-22-2-2-2-22-----|
A|--2-222-22-2-2-2-223-333-33-3-3-3-332-222-22-2-2-2-220-000-00-0-0-0-00-----|
E|--0-000-00-0-0-0-000-000-00-0-0-0-000-000-00-0-0-0-000-000-00-0-0-0-00-----|

Final Riff

e|--0-000-00-0-0-0-000-000-00-0-0-0-000-000-00-0-0-0-000-0-000-0-00----------|
B|--0-000-00-0-0-0-001-111-11-1-1-1-110-000-00-0-0-0-002-2-220-0-00----------|
G|--0-000-00-0-0-0-000-000-00-0-0-0-000-000-00-0-0-0-003-3-332-2-22----------|
D|--2-222-22-2-2-2-222-222-22-2-2-2-222-222-22-2-2-2-220-0-002-2-22----------|
A|--2-222-22-2-2-2-223-333-33-3-3-3-332-222-22-2-2-2-220-0-000-0-00----------|
E|--0-000-00-0-0-0-000-000-00-0-0-0-000-000-00-0-0-0-000-0-000-0-00----------|


************************************

| /   slide up
| \   slide down
| h   hammer-on
| p   pull-off
| ~   vibrato
| +   harmonic
| x   Mute note
| b   Bend
| pb  Pre-bend
| br  Bend release
| pbr Pre-bend release
| brb Bend release bend

************************************
            

comments powered by Disqus
↑ Back to top | Immortal Tabs for A Perfect Vision Of The Rising Northland. Lyrics for acoustic guitar and electric guitar. Tablatures and chords are parodies/interpretations of the original songs. You may use it for private study, scholarship, research or language learning purposes only