>
 >
Unholy Cult

Unholy Cult Guitar Tabs

Immolation - Unholy Cult chords, tabs, tablatures, lyrics

Guitar lessons | Add/correct | Request | Top 50 tabs Artists:  A B C D E F G H I J K L M N O P Q R S T U V W X Y Z 0-9

Unholy Cult Guitar Tabs – Immolation

CD, Sheet music, Poster

Do you like Unholy Cult? Share with your friends now
Tabs
Band:  IMMOLATION


Tuning: 2 steps down (C)

Keys:
  x  - mute
  "  - tremelo pick
 ___ - palm mute
 / \ - slide
  p  - pull off
  b  - bend
  r  - release bend
  h  - hammer on
 < > - pinch harmonic


INTRO:
(Gtr 1)
|--------------------------------------|
|--------5"--4"---8"---7"--------------|
|-----4--4"--3"---7"---6"--------------|
|---4-x--------------------4-----------|
|---x-2--------------------x-----------|
|-0-2-0--------------------2--00000000-|
                              ________

(Gtr 2)
|--------------------------------------|
|--------8"--7"--11"--10"--------------|
|-----4--9"--8"--12"--11"--------------|
|---4-x--------------------4-----------|
|---x-2--------------------x-----------|
|-0-2-0--------------------2--00000000-| 3x
                              ________

(Gtr 1)
|------------------------------------|
|--------5"--4"---8"---7"--10"--13"--|
|-----4--4"--3"---7"---6"---9"--12"--|
|---4-x------------------------------|
|---x-2------------------------------|
|-0-2-0------------------------------|

(Gtr 2)
|------------------------------------|
|--------8"--7"--11"--10"--13"--16"--|
|-----4--9"--8"--12"--11"--14"--17"--|
|---4-x------------------------------|
|---x-2------------------------------|
|-0-2-0------------------------------|

(Gtr 1)
|--------------------------------------|
|--------5"--4"---8"---7"--------------|
|-----4--4"--3"---7"---6"--------------|
|---4-x--------------------4-----------|
|---x-2--------------------x-----------|
|-0-2-0--------------------2--00000000-|
                              ________

(Gtr 2)
|--------------------------------------|
|--------8"--7"--11"--10"--------------|
|-----4--9"--8"--12"--11"--------------|
|---4-x--------------------4-----------|
|---x-2--------------------x-----------|
|-0-2-0--------------------2--00000000-| 3x
                              ________

(Gtr 1)
|------------------------------------|
|--------5"--4"---8"---7"--10"--13"--|
|-----4--4"--3"---7"---6"---9"--12"--|
|---4-x------------------------------|
|---x-2------------------------------|
|-0-2-0------------------------------|

(Gtr 2)
|------------------------------------|
|--------8"--7"--11"--10"--13"--16"--|
|-----4--9"--8"--12"--11"--14"--17"--|
|---4-x------------------------------|
|---x-2------------------------------|
|-0-2-0------------------------------|


RIFF A:

|----------------------|     |----------------------|
|----------------------|     |----------------------|
|----------------------|     |----------------------|
|-4--------0-0-0-0-0-0-|     |-4--------------------|
|----------------------|     |----------4-4-4-4-4-4-|
|----2--1--------------| 4x  |----2--1--------------| 4x
  ____________________         ____________________

|----------------------|     |----------------------|
|----------------------|     |----------------------|
|----------------------|     |----------------------|
|-4--------0-0-0-0-0-0-|     |-4--------------------|
|----------------------|     |----------4-4-4-4-4-4-|
|----2--1--------------| 4x  |----2--1--------------| 4x
  ____________________         ____________________


RIFF B:

|-------------------------------------------------------------------
|-------------------------------------------------------------------
|-7\------4"--6"--7"\------4"--6"---6\------4"--5"--6"------4"--6"--
|-x---4"--x---x---x----4"--x---x----x---4"--x---x---x---4"--x---x---
|-5\--x---2"--4"--5"\--x---2"--4"---4\--x---2"--3"--4"--x---2"--4"--
|-----2"---------------2"---------------2"--------------2"----------

 -------------------------------------------------------------------|
 -------------------------------------------------------------------|
 -7\------4"--6"--7"\------4"--6"---6\------4"--5"--6"--7"------6"--|
 -x---4"--x---x---x----4"--x---x----x---4"--x---x---x---x-------x---|
 -5\--x---2"--4"--5"\--x---2"--4"---4\--x---2"--3"--4"--5"------4"--|
 -----2"---------------2"---------------2"--------------------------|


RIFF A


RIFF B


RIFF C:
(Gtr 1)
|--------------------------------------------
|-7-7-7---------------------10"------9"------
|-6-6-6---------3------------x---9"--8"--8"--
|--------5-5-4--x--3--2--3---7"--7"------x---
|--------5-5-x--1--x--2--3-------7"------6"--
|--------3-3-2-----1--0--1-------------------

(Gtr 2)
|-7-7-7---------6-----------10"--------------
|-x-x-x--8-8-7--x--6--5--6---x-------9"------
|-4-4-4--x-x-x--3--x--x--x---7"--9"--x---8"--
|--------5-5-4-----3--2--3-------x---6"--x---
|--------------------------------7"------6"--
|--------------------------------------------

(Gtr 1)
 ----------------------------------------------|
 -7-7-7---------------------10"----------------|
 -6-6-6---------3------------x---9"--6"--/10"--|
 --------5-5-4--x--3--2--3---7"--7"--6"--/10"--|
 --------5-5-x--1--x--2--3-------7"--4"---/8"--|
 --------3-3-2-----1--0--1---------------------|

(Gtr 2)
 -7-7-7---------6-----------10"----------------|
 -x-x-x--8-8-7--x--6--5--6---x-------9"--/13"--|
 -4-4-4--x-x-x--3--x--x--x---7"--9"--x-----x---|
 --------5-5-4-----3--2--3-------x---6"--/10---|
 --------------------------------7"------------|
 ----------------------------------------------| 2x


INTRO - 2x


RIFF Da:

|-------------------|
|-------------------|
|-------------------|
|-------------------|
|--------2"-3"------|
|-0-------------2"--| 4x

(Gtr 1)
|-----------------------|
|-----------------------|
|-----------------------|
|-----------------------|
|-/7\6/7\----2"-3"------|
|----------0------------|

(Gtr 2)
|-----------------------|
|-8\--------------------|
|-9\--------------------|
|-9\----------------4"--|
|-7\---------2"-3"------|
|----------0------------| 4x

(Gtr 1)
|--------------------------|
|--------------------------|
|--------------------------|
|--5--5--5\------------4\--|
|--------------2"-3"-------|
|------------0-------------|

(Gtr 2)
|--------------------------|
|-12-12-12\-----------13"--|
|-11-11-11\-----------12"--|
|--9--9--9\-----------10"--|
|--------------2"-3"-------|
|------------0-------------| 4x

(Gtr 1)
|---------------------------|
|-12-12-12\------------13"--|
|-11-11-11\------------12"--|
|--9--9--9\------------10"--|
|--------------2"-3"--------|
|------------0--------------|

(Gtr 2)
|---------------------------|
|-12-12-12\------------13"--|
|---------------------------|
|---------------------------|
|--------------2"-3"p0------|
|------------0--------------| 4x


RIFF E:

|---------------------------|
|---------------------------|
|---------------------------|
|-------2"----4"------------|
|----1"----0"----3"-----5"--|
|-0"----------------2/3-----| 8x


UNDER SOLO:

|-------------------------------------------------|
|-------------------------------------------------|
|-10-9"----10"----9"---10"------------------------|
|--x-x------x-----x-----x-----4-4-4-5-3-----------|
|--8-7"-----8"----7"----7"----x-x-x-x-x-3-3-3-----|
|-----------------------------2-2-2-3-1-------1/--| 2x

|----------------------------------------------------|
|-13-12"----13"----12"----13"------------------------|
|--x--x------x------x------x-------------------------|
|-10--9"----10"-----9"----10"----4-4-4-5-3-----------|
|--------------------------------x-x-x-x-x-3-3-3-----|
|--------------------------------2-2-2-3-1-------1/--| 2x


RIFF B - 2x

(Gtr 2)
|----------------------------------------------------------------------
|-10----10--10--10--10--10/12--10--10--9-(9)(9)---6--7--9~-/15--15--15-
|--x-----x---x---x---x--x--x---x---x---x-------------------------------
|--7-----7---7---7---7--7/-9---7---7---6--6--6br-----------------------
|----------------------------------------------------------------------
|----------------------------------------------------------------------

 ---------------------------------------------------------19------22------|
 -15/17--17-\15-15~-15/19-19~-19\18-18-/21~-22\21-21~-22------19----------|
 -------------------------------------------------------------------------|
 -------------------------------------------------------------------------|
 -------------------------------------------------------------------------|
 -------------------------------------------------------------------------|


RIFF C


RIFF Db:
(Gtr 1)
|---------------------------|
|-12-12-12\------------13"--|
|-11-11-11\------------12"--|
|--9--9--9\------------10"--|
|--------------2"-3"--------|
|------------0--------------|

(Gtr 2)
|---------------------------|
|-12-12-12\------------13"--|
|---------------------------|
|---------------------------|
|--------------2"-3"p0------|
|------------0--------------| 4x

(Gtr 1)
|--------------------------|
|--------------------------|
|--------------------------|
|--5--5--5\------------4\--|
|--------------2"-3"-------|
|------------0-------------|

(Gtr 2)
|--------------------------|
|-12-12-12\-----------13"--|
|-11-11-11\-----------12"--|
|--9--9--9\-----------10"--|
|--------------2"-3"-------|
|------------0-------------| 4x

(Gtr 1)
|-----------------------|
|-----------------------|
|-----------------------|
|-----------------------|
|-/7\6/7\----2"-3"------|
|----------0------------|

(Gtr 2)
|-----------------------|
|-8-8-8\----------------|
|-9-9-9\----------------|
|-9-9-9\------------4"--|
|-7-7-7\-----2"-3"------|
|----------0------------| 4x

|-------------------|
|-------------------|
|-------------------|
|-------------------|
|--------2"-3"------|
|-0-------------2"--| 4x


OUTRO:
(Gtr 1)
|------4-4-4-4-4---------3--3--3---------------|
|------5-5-5-5-5---------3--3--3---------------|
|------6-6-6-6-6----5----5--5--5---------------|
|-------------------5---(5)(5)(5)-------<4>~---|
|-------------------3---(3)(3)(3)---0h3--------|
|-0--------------------------------------------|

|------4-4-4-4-4---------3--3--3---------------|
|------5-5-5-5-5---------3--3--3---------------|
|------6-6-6-6-6----5----5--5--5---------------|
|-------------------5---(5)(5)(5)-------<4>~---|
|-------------------3---(3)(3)(3)---0h3--------|
|-0--------------------------------------------|

|------4-4-4-4-4---------3--3--3---------------|
|------5-5-5-5-5---------3--3--3---------------|
|------6-6-6-6-6----5----5--5--5---------------|
|-------------------5---(5)(5)(5)--<4>---------|
|-------------------3---(3)(3)(3)--------<2-3>-|
|-0-----------------------------------<0>------|

|------4-4-4-4-4---------3--3--3---------------|
|------5-5-5-5-5---------3--3--3---------------|
|------6-6-6-6-6----5----5--5--5----/15--\10---|
|-------------------5---(5)(5)(5)-----x----x---|
|-------------------3---(3)(3)(3)---/13---\8---|
|-0--------------------------------------------|

(Gtr 2)
|---------------------------------------------------------------------|
|-13-\12-12--------13-\12-12--------13-\12-12--------13-\12-9----\8-8-|
|--x------x---------x------x---------x------x---------x-----x-------x-|
|-10--\9--9--------10--\9--9--------10--\9--9--------10--\9-6----\5-5-|
|---------------------------------------------------------------------|
|---------------------------------------------------------------------|

eventual fade out.....

End.





Comments


Popular Immolation tabs & chords
Burn With Jesus Tabs
Challenge The Storm Tabs
Christ's Cage Tabs
Close To A World Below Tabs
Here In After Tabs
Lost Passion Tabs
No Jesus, No Beast Tabs
Of Martyrs And Men Tabs
Stench Of High Heaven Tabs
Those Left Behind Tabs


Song lyrics



↑ Back to top | Tablatures and chords are parodies/interpretations of the original songs. You may use it for private study, scholarship, research or language learning purposes only
© 2014 AZChords.com Contact us | Privacy policy | DMCA | Add/correct tabs | Request tabs | Top 50 tabs