>
 >
Those Left Behind

Those Left Behind Guitar Tabs

Immolation - Those Left Behind chords, tabs, tablatures, lyrics

Guitar lessons | Add/correct | Request | Top 50 tabs Artists:  A B C D E F G H I J K L M N O P Q R S T U V W X Y Z 0-9

Those Left Behind Guitar Tabs – Immolation

CD, Sheet music, Poster

Do you like Those Left Behind? Share with your friends now
Tabs
Version 1.0 - November 2001

Rhythm Guitar Transcribed on Bass
Tuning (Low - High): C F Bb E 


Intro                                                          Guitar 1
|----------------------------------|----------------------------------|
|----------------------------------|----------------------------------|
|-2---33333333----2---333333--6666-|-2---33333333----2---333333--6666-|
|-0-----------11110---------11-----|-0-----------11110---------11-----|
|     ............    ............       ............    ............
|                                                              Guitar 2
|----------------------------------|----------------------------------|
|----------------------------------|-----------------2----------------|
|----------------------------------|-----------------2----------------|
|----------------------------------|-----------------0----------------|


A (both guitars)          Play twice
|----------------------------------|
|----------------------------------|
|-2---33333333----2---333333--6666-|
|-0-----------11110---------11-----|
      ............    .............   


Repeat A (Guitar 1) with A' 


A' (Guitar 2)                                                                                           
|----------------------------------|
|-----55555555--------555555--8888-|
|-2---------------2----------------|
|-0-----------11110---------11-----|
      ............    ............


Fill 1                          Guitar 1
|---------------------------------Ah---|
|-----------------------------1h2-2----|
|-2---33333333----2---333333-----------|
|-0-----------11110---------11---------|
| .   ............    ........   
|                               Guitar 2
|---------------------------------Ah---|
|-----55555555--------555555--1h2-2----|
|-2---------------2--------------------|
|-0-----------11110--------11----------|
      ............    .......


B                       Play 8 times
|-----------------------------Ah---|
|-------------------------1h2-2----|
|----------------------------------|
|-6\3-3/6-6\3-1---0-0-0-0----------|
                  . . . .


Fill 2
|--------------|
|--------------|
|---------5-5--|
|-6\3-3/6-3-3--|
          . .


C1                        
|------------------|
|-1-----1---4------|
|------------------|
|---333---3----3-3-|
    ...   .    . .


C2      Play 3 times                        
|-Ah---------------|
|-1-----1---4------|
|------------------|
|---222---2----2-2-|
    ...   .    . .


Repeat C1, C2 x 4


Fill 3                      Guitar 1
|----------------------------------|
|----------------------------------|
|-2---33333333----2---333333--6666-|
|-0-----------11110---------11-----|
|     .............   ............
|                           Guitar 2 
|----------------------------------|
|---------------------555555--8888-|
|-2---33333333----2----------------|
|-0-----------11110---------11-----|
      ............    ............


Repeat A x 3 (w/A' x 3)


Fill 3                                                     Guitar 1
|-----------------------------------77--99--1010------------------|
|-----------------------------9-------99--99----------------------|
|-5-44445544--------2-2-----3-7--------------------33335533-------|
|-3---------66333p1-0-----5-----0000-----------------------444444-|
|
|                                                          Guitar 2
|-----------------------------------77--99--1010------------------|
|-----------------------------9-------99--99----------------------|
|---------------------2-----3-7--------------------33335533-------|
|-------------------------5-----0000-----------------------444444-|


D                                                      Play 3 times
|-----------------------------------77--99--1010------------------|
|-----------------------------9-------99--99----------------------|
|-5-44445544--------2-2-----3-7--------------------33335533-------|
|-3---------66333p1-0-----5-----0000-----------------------444444-|


Fill 4                                    
|-----------------------------------77--99--991010----------------|
|-----------------------------9-------99--99----------------------|
|-5-44445544--------2-2-----3-7--------------------333355336-6-6--|
|-3---------66333p1-0-----5-----0000-----------------------4-4-4--|
                                                           . . .

Repeat C1, C2 x 3, C1


Fill 5
|------------------------|
|------------------------|
|------------------------|
|-8------8\6-6\5-5---2-3-|


Repeat C1, C2 x 3


Fill 6              Guitar 1
|--------------------------|
|-----3-------4-4-----4-2--|
|-3-3----------------------|
|-1-1-------------222------|
|   .             ... 
|                   Guitar 2
|--------------------------|
|-------------4-4-----4-2--|
|--------------------------|
|-----------------222------|
                  ... 


E               Play 8 times
|--------------------------|
|-----3-------4-4-----4-2--|
|-3-3----------------------|
|-1-1-------------222------|
    .             ... 


F      [1-2,4-6,8]                  [3,7]
|-------------------------|--------------------------|
|-8-------------------5---|-8--------------------5---|
|-6-------7---------3-3-3-|-6-------7---6h10p9-3-3-3-|
|-----55555---5h8-7-1---1-|-----55555----------1---1-|
      ....                      ....


Fill 7
|---------------Ah---|
|-5---------1h2-2----|
|-3------------------|
|-----0-0-0----------|
      . . .


Repeat B x 5 (under solo)


Fill 8
|--------------------------------------|
|-----------------3-------4-4-----4-2--|
|-----------3-3-3----------------------|
|-6\3-3/6-6-1-1-1-------------222------|
            . . .             ...


Repeat E x 6, Fill 3, A x 3 (w/A' x 3)


Fill 9                                                                  Guitar 1
|------------------------------------------------------------------------------|
|-2---------------2-----------4---4---3---4---4---3---2---2---2---2---2---2----|
|-2---33333333----2---333333----2---2-------2---2-------1---1-------1---1------|
|-0-----------11110---------11-------------------------------------------------|
|     ............    ........  .   .       .   .       .   .       .   .
|                                                                       Guitar 2
|------------------------------------------------------------------------------|
|-2---55555555----2---555555--------------------------2---2---2---2---2---2----|
|-2---------------2-------------------------------------1---1-------1---1------|
|-0-----------11110---------11-------------------------------------------------|
      ............    ........                          .   .       .   .


Outro                                       Guitar 1           
|--------------------------------------------------|
|-4---4---3---4---4---3---2---2---2---2---2---2----|
|---2---2-------2---2-------1---1-------1---1------|
|--------------------------------------------------|
|   .   .       .   .       .   .       .   .
|                                           Guitar 2
|--------------------------------------------------|
|--------------------------------------------------|
|-------------44444444----333333333333777777777777-|
|-222222222222--------5555-------------------------|


Repeat until fade


The End.

Lalith Vipulananthan
----------------------





Comments


Popular Immolation tabs & chords
Burn With Jesus Tabs
Challenge The Storm Tabs
Christ's Cage Tabs
Close To A World Below Tabs
Harnessing Ruin Tabs
Lost Passion Tabs
Rival The Eminent Tabs
Sinful Nature Tabs
Stench Of High Heaven Tabs
Unholy Cult Tabs


Song lyrics



↑ Back to top | Tablatures and chords are parodies/interpretations of the original songs. You may use it for private study, scholarship, research or language learning purposes only
© 2014 AZChords.com Contact us | Privacy policy | DMCA | Add/correct tabs | Request tabs | Top 50 tabs