» » »

Sinful Nature Tabs (ver.1)

Artists:  A B C D E F G H I J K L M N O P Q R S T U V W X Y Z # 

Sinful Nature Tabs (ver.1)

Immolation
Rating:
0/5 (0 votes)

Hard to play? Try these video lessons and learn fast.
                                             --- IMMOLATION  ---
                               "Sinful Nature"
                 
                            TABULATURE LEGEND:
                   " - tremolo             h - hammer on
                   ~ - vibrato             \ - slide down
                   p - pull off            / - slide down
                  tr - trill               ^ - pinch harmonics
                   = - sustained note      b - bend string
                p.m. - palm muting         t - tapping

TUNING: C [C, F, Bb, eb, g, c]

[Riff 1 (x4)]
||-----------------------------------------||
||o---------------------------------------o||
||--------6--5-5-5---------------------4---||
||--3---------------3--3--------7-7-7------||
||o-3--1--4--3-3-3-----3--1--4--6-6-6--2--o||
||-----1------------1-----1--8--5-5-5------||

[Riff 2a (x4)]                [Riff 2b (x4)]
||---------------------||     ||---------------------||
||o-------------------o||     ||o-----------^-------o||
||------------^--------||     ||------------7~-------||
||------------7~-------||     ||---------------------||
||o-------------------o||     ||o-------------------o||
||--0"...-0-1----1b2~--||     ||--0"...-0-1----1b2~--||

[RIFF 1 (x4)] [RIFF 2a (x4)] [RIFF 2b (x4)]

[Riff 3a]
||----------------------------------[x2]-||-
||o-------------------------------------o||-
||---------------------------------------||-
||---------------------------------------||-
||o-------------------------------------o||-
||--4"-6"-4"-6"-4"-6"-3"-7"-3"-7"-3"-7"--||-
|                                         |
||----------------------------------[x2]-||-
||o-------------------------------------o||-
||---------------------------------------||-
||---------------------------------------||-
||o-------------------------------------o||-
||--4"-6"-4"-6"-4"-6"-3"-7"-3"-7"-3"-7"--||-

-||----------------------------------[x2]-||
-||o-------------------------------------o||
-||---------------------------------------||
-||---------------------------------------||
-||o-4"-6"-4"-6"-4"-6"-3"-7"-3"-7"-3"-7"-o||
-||---------------------------------------||
 |                                         |
-||----------------------------------[x2]-||
-||o-------------------------------------o||
-||---------------------------------------||
-||---------------------------------------||
-||o-4"-6"-4"-6"-4"-6"-3"-7"-3"-7"-3"-7"-o||
-||---------------------------------------||

[Riff 3b (x2)]
||----------------------------------[x2]-||-
||o-------------------------------------o||-
||---------------------------------------||-
||---------------------------------------||-
||o-------------------------------------o||-
||--4"-6"-4"-6"-4"-6"-3"-7"-3"-7"-3"-7"--||-
|                                         |
||----------------------------------[x2]-||-
||o-10b12~~-----------11"........-------o||-
||---9----------------9"-...........-----||-
||------------8"-7"---8"-..............--||-
||o-------------------------------------o||-
||---------------------------------------||-

-||----------------------------------[x2]-||
-||o-------------------------------------o||
-||---------------------------------------||
-||---------------------------------------||
-||o-4"-6"-4"-6"-4"-6"-3"-7"-3"-7"-3"-7"-o||
-||---------------------------------------||
 |                                         |
-||--6b7~~-6b7~~---------------------[x2]-||
-||o-6b7~~-6b7~~---------12"........-----o||
-||--------------4"-3"---11"..........----||
-||----------------------12"............--||
-||o-------------------------------------o||
-||---------------------------------------||

[Riff 4a (x8)]               [Riff 4b (x4)]
||------------------------||-||------------------------||
||o----------------------o||-||o----------------------o||
||------------------------||-||--44444444--------------||
||--55555555---4-8-3---4--||-||--55555555---4-8-3---4--||
||o------------------2---o||-||o------------------2---o||
||-----------0-2-6-1-0-2--||-||-----------0-2-6-1-0-2--||

||------------------------||-||------------------------||
||o----------------------o||-||o-55555555-------------o||
||------------------------||-||--44444444--------------||
||--55555555---4-8-3---4--||-||-------------4-8-3---4--||
||o------------------2---o||-||o------------------2---o||
||-----------0-2-6-1-0-2--||-||-----------0-2-6-1-0-2--||

[Riff 5 (x8)] /under solo/
||---------------------------||
||o-------------------------o||
||---------------------------||
||--------------------3"...--||
||o-5"...-------4"...-------o||
||--------1"...--------------||

[Riff 6a (x4)]            [Riff 6b (x4)]
||--------------------||  ||--------------------||
||o-----5---5\3--4---o||  ||o-----5---5\3--4---o||
||--------------------||  ||--------------------||
||--2---5---4----1----||  ||--2---5---4----1----||
||o-2---3---2--------o||  ||o-2---3---2--------o||
||--0-----------------||  ||--0-----------------||
|                      |  |                      |
||--------------------||  ||--7"----------------||
||o-----5---5\3--4---o||  ||o-5"---------------o||
||--------------------||  ||--4"----------------||
||--2---5---4----1----||  ||-----------9h10p9\--||
||o-2---3---2--------o||  ||o------------------o||
||--0-----------------||  ||--------------------||

[RIFF 1 (x4)] [RIFF 2a (x4)] [RIFF 2b (x4)]
[RIFF 3a] [RIFF 3b (x2)] [RIFF 4a (x4)] [RIFF 4b (x4)]

END OF SONG
            
Hard to play? Try these video lessons and learn fast. | Correct




comments powered by Disqus
↑ Back to top | Tablatures and chords are parodies/interpretations of the original songs. You may use it for private study, scholarship, research or language learning purposes only