>
 >
Rival The Eminent

Rival The Eminent Guitar Tabs

Immolation - Rival The Eminent chords, tabs, tablatures, lyrics

Guitar lessons | Add/correct | Request | Top 50 tabs Artists:  A B C D E F G H I J K L M N O P Q R S T U V W X Y Z 0-9

Rival The Eminent Guitar Tabs – Immolation

CD, Sheet music, Poster

Do you like Rival The Eminent? Share with your friends now
Tabs
Band:   IMMOLATION


Tuning: 2 steps down (C)

Keys:
 / \ - slide
  x  - mute
  "  - tremelo pick
 < > - pinch harmonic
  b  - bend
  p  - pull off
 ___ - palm mute
  h  - hammer on


INTRO:
(Gtr 1)
|---------------------------|
|---------------------------|
|---------------------------|
|--------------3------------|
|--------------3------------|
|-11\(7)-7\(1)-1------------|

(Gtr 2)
|---------------------------|
|--9\---------------6-6-6-6-|
|--8\----4-----5----5-5-5-5-|
|--------x-----x------------|
|--------2-----3------------|
|---------------------------| 4x

(Gtr 1)
|---------------------------|
|---------------------------|
|---------------------------|
|--------------3------------|
|--------------3------------|
|-11\(7)-7\(1)-1------------|

(Gtr 2)
|---------------------------|
|--9\---------------6-6-6-6-|
|--8\----4-----5----5-5-5-5-|
|--------x-----x------------|
|--------2-----3------------|
|---------------------------|

(Gtr 3)
|---------------------------|
|-11----\7---/13"-----------|
|--x-----x-----x------------|
|--8----\4---/10"-----------|
|---------------------------|
|---------------------------|

(Gtr 1)
|---------------------------|
|---------------------------|
|---------------------------|
|--------------3------------|
|--------------3------------|
|-11\(7)-7\(1)-1------------|

(Gtr 2)
|---------------------------|
|--9\---------------6-6-6-6-|
|--8\----4-----5----5-5-5-5-|
|--------x-----x------------|
|--------2-----3------------|
|---------------------------|


FILL:
(Gtr 1)
|------------------------------|
|------------------------------|
|------------------------------|
|------------------------------|
|------------------------------|
|-11\(7)/(13)----11\(7)\(1)----|

(Gtr 2)
|------------------------------|
|------------------------------|
|------------------------------|
|-13\(9)/(15)----13\(9)--------|
|------------------------------|
|------------------------1-----|


RIFF A:
(Gtr 1)
|---------------------------|
|---------------------------|
|---------------------------|
|--------------3------------|
|--------------3------------|
|-11\(7)-7\(1)-1------------|

(Gtr 2)
|---------------------------|
|--9\---------------6-6-6-6-|
|--8\----4-----5----5-5-5-5-|
|--------x-----x------------|
|--------2-----3------------|
|---------------------------| 4x


RIFF B:

|----------------------------|
|----------------------------|
|----------------------------|
|-4----6----3----------------|
|-4----4----3--<3bp2>--------|
|-2----4----1---------000000-| 4x
                      ______

(Gtr 1)
|----------------------------|     |------------------------|
|----------------------------|     |------------------------|
|----------------------------|     |------------------------|
|-4----6----3----------------|     |-4----6----3------------|
|-4----4----3--<3bp2>--------|     |-4----4----3------------|
|-2----4----1---------000000-| 4x  |-2----4----1------------|
                      ______

(Gtr 2 - gtr 3 is mixed in somewhat)
|--------------------------------------------|
|-6/7\6--6/7\6-------------6-----------6/7\6-|
|---------------5---6---5---------5--6-------|
|--------------------------------------------|
|--------------------------------------------|
|--------------------------------------------|

 ---------------------------------------------------|
 ------------6---5--/9-9-9p8-9-9-9p8-6--<6>~--------|
 -5---6---5-----------------------------------------|
 ---------------------------------------------------|
 ---------------------------------------------------|
 ---------------------------------------------------|


RIFF A - 6x


RIFF B


FILL:
(Gtr 1)
|-------------------|
|-6"/---------------|
|-x-----------------|
|-3"/---------------|
|-------------------|
|-------------------|

(Gtr 2)
|-------------------|
|-------------------|
|-5"/---------------|
|-x-----------------|
|-3"/---------------|
|-------------------|


RIFF C:

|---------------3----------------------|
|---------------3----------------------|
|---------------0----------------------|
|--------------------------------------|
|--------------------------------------|
|-111111-111111----333333-333333-6p3p0-| 8x
  _____________    _____________

(Gtr 1)
|---------------3----------------------|
|---------------3----------------------|
|---------------0----------------------|
|--------------------------------------|
|--------------------------------------|
|-111111-111111----333333-333333-6p3p0-|
  _____________    _____________

(Gtr 2)
|--------------------------------------|
|-/9"-----------8"--5"-----------------|
|-/8"-----------7"--4"-----------------|
|--------------------------------------|
|--------------------------------------|
|--------------------------------------| 3x

(Gtr 1)
|---------------3------------------|
|---------------3------------------|
|---------------0------------------|
|----------------------------------|
|----------------------------------|
|-111111-111111----333333-333333-6-|
  _____________    _____________

(Gtr 2)
|----------------------------------|
|-/9"-----------8"--5"-------------|
|-/8"-----------7"--4"-------------|
|----------------------------------|
|----------------------------------|
|----------------------------------|


|---------------3----------------------|
|---------------3----------------------|
|---------------0----------------------|
|--------------------------------------|
|--------------------------------------|
|-111111-111111----333333-333333-6p3p0-| 4x
  _____________    _____________

(Gtr 1)
|---------------3----------------------|
|---------------3----------------------|
|---------------0----------------------|
|--------------------------------------|
|--------------------------------------|
|-111111-111111----333333-333333-6p3p0-|
  _____________    _____________

(Gtr 2)
|--------------------------------------|
|-/9"-----------8"--5"-----------------|
|-/8"-----------7"--4"-----------------|
|--------------------------------------|
|--------------------------------------|
|--------------------------------------| 4x


RIFF D:
(Gtr 1)
|-----------------------|
|-----5/6-5/6-6---------|
|-----4/5-4/5-5---------|
|-----------------------|
|-3\1-----------4"-5"---|
|---------------------0-|

(Gtr 2)
|-----6/7-6/7-7---------|
|-----5/6-5/6-6---------|
|-----------------------|
|-----------------------|
|-3\1-----------4"-5"---|
|---------------------0-| 4x

(Gtr 1)
|-----------------------|
|-----5/6-5/6-6---------|
|-----4/5-4/5-5---------|
|-----------------------|
|-3\1-----------4"-5"---|
|---------------------0-|

(Gtr 2)
|-----6/7-6/7-7---------|
|-----5/6-5/6-6---------|
|-----------------------|
|-----------------------|
|-3\1-----------4"-5"---|
|---------------------0-|

(Gtr 3)
|------------------------------------------|
|-11h12-11h12-11h12-11h12-11h12-11h12-13~--|
|------------------------------------------|
|------------------------------------------|
|------------------------------------------|
|------------------------------------------| 4x

(Gtr 1)
|-----------------------|
|-----5/6-5/6-6---------|
|-----4/5-4/5-5---------|
|-----------------------|
|-3\1-----------4"-5"---|
|---------------------0-|

(Gtr 2)
|-----6/7-6/7-7---------|
|-----5/6-5/6-6---------|
|-----------------------|
|-----------------------|
|-3\1-----------4"-5"---|
|---------------------0-| 3x


RIFF E:

|-----6/7-7"--8"--------------------|
|-----5/6-6"--5"--8"--(8)(8)--------|
|-----------------x-----------------|
|-----------------5"--h6-(6)--------|
|-3\1---------------------7----0----|
|-----------------------------------|

|-7"----8"-----------------------|     |-7"--|
|-6"----5"----8"---(8)(8)--------|     |-6"--|
|-------------x------------------|     |-----|
|-------------5"---h6-(6)--------|     |-----|
|----------------------7----0----|     |-----|
|--------------------------------| 4x  |-----|


UNDER SOLO:

|------------------------|     |---------------|
|------------------------|     |---------------|
|-8-8-8---------10"------|     |-8-8-8---------|
|-8-8-8--9-9-9--10"------|     |-8-8-8--9-9-9--|
|-6-6-6--9-9-9---8"------|     |-6-6-6--9-9-9--|
|--------7-7-7-----------| 5x  |--------7-7-7--|

(Gtr 1)
|--------------------------------------------------|
|--------------------------------------------------|
|------6-6-6--5-5-5-----5-------6--6-6--9---9---9--|
|-3----6-6-6--5-5-5--6--5--3----6--6-6--9---9---9--|
|-3----4-4-4--3-3-3--6--3--3----4--4-4--7---7---7--|
|-1------------------4-----1-----------------------|

(Gtr 2)
|--------------------------------------------------|
|------9-9-9--8-8-8-----8-------9--9-9-12--12--12--|
|------x-x-x--x-x-x--8--x-------x--x-x--x---x---x--|
|-3----6-6-6--5-5-5--x--5--3----6--6-6--9---9---9--|
|-3------------------6-----3-----------------------|
|-1------------------------1-----------------------|

(Gtr 1)
 ------------------------------------------------|
 ------------------------------------------------|
 ------6-6-6--5-5-5-----5-------6--6-6--9--------|
 -3----6-6-6--5-5-5--6--5--3----6--6-6--9---9\6--|
 -3----4-4-4--3-3-3--6--3--3----4--4-4--7--------|
 -1------------------4-----1---------------------|

(Gtr 2)
 ------------------------------------------------|
 ------9-9-9--8-8-8-----8-------9--9-9-12--12\9--|
 ------x-x-x--x-x-x--8--x-------x--x-x--x---x----|
 -3----6-6-6--5-5-5--x--5--3----6--6-6--9---9\6--|
 -3------------------6-----3---------------------|
 -1------------------------1---------------------|

(Gtr 1)
 --------------------------------------------------|
 --------------------------------------------------|
 ------6-6-6--5-5-5-----5-------6--6-6--9---9---9--|
 -3----6-6-6--5-5-5--6--5--3----6--6-6--9---9---9--|
 -3----4-4-4--3-3-3--6--3--3----4--4-4--7---7---7--|
 -1------------------4-----1-----------------------|

(Gtr 2)
 --------------------------------------------------|
 ------9-9-9--8-8-8-----8-------9--9-9-12--12--12--|
 ------x-x-x--x-x-x--8--x-------x--x-x--x---x---x--|
 -3----6-6-6--5-5-5--x--5--3----6--6-6--9---9---9--|
 -3------------------6-----3-----------------------|
 -1------------------------1-----------------------|

(Gtr 1)
 ------------------------------------------------|
 ------------------------------------------12/13-|
 ------6-6-6--5-5-5-----5-------6--6-6--9---x----|
 -3----6-6-6--5-5-5--6--5--3----6--6-6--9---9/10-|
 -3----4-4-4--3-3-3--6--3--3----4--4-4--7--------|
 -1------------------4-----1---------------------|

(Gtr 2)
 ------------------------------------------------|
 ------9-9-9--8-8-8-----8-------9--9-9-12--12/13-|
 ------x-x-x--x-x-x--8--x-------x--x-x--x---x----|
 -3----6-6-6--5-5-5--x--5--3----6--6-6--9---9/10-|
 -3------------------6-----3---------------------|
 -1------------------------1---------------------|


AFTER SOLO:

(Gtr 1)
|------------------------------------------------|
|------------------------------------------------|
|------6-6-6--5-5-5-----5-------6--6-6--9--------|
|-3----6-6-6--5-5-5--6--5--3----6--6-6--9---9\6--|
|-3----4-4-4--3-3-3--6--3--3----4--4-4--7--------|
|-1------------------4-----1---------------------|

(Gtr 2)
|------------------------------------------------|
|------9-9-9--8-8-8-----8-------9--9-9-12--12\9--|
|------x-x-x--x-x-x--8--x-------x--x-x--x---x----|
|-3----6-6-6--5-5-5--x--5--3----6--6-6--9---9\6--|
|-3------------------6-----3---------------------|
|-1------------------------1---------------------|

(Gtr 1)
 ---------------------------------------------------------------|
 ---------------------------------------------------------13/14-|
 ------6-6-6--5-5-5-----5--------3---3--3-/5---5---5-------x----|
 -3----6-6-6--5-5-5--6--5--3-----x---x--x------x---x------10/11-|
 -3----4-4-4--3-3-3--6--3--3-----1---1--1-/3---3---3------------|
 -1------------------4-----1--------------------------000-------|
                                                      ___

(Gtr 2)
 ---------------------------------------------------------------|
 ------9-9-9--8-8-8-----8-------11--11-11/13--13--13------13/14-|
 ------x-x-x--x-x-x--8--x--------x---x--x------x---x-------x----|
 -3----6-6-6--5-5-5--x--5--3-----9---9--9/10--10--10------10/11-|
 -3------------------6-----3------------------------------------|
 -1------------------------1--------------------------000-------|
                                                      ___


OUTRO (eventual fade out):

|-----------------------------------------------------------------|
|-----------------------------------------------------------------|
|-----------------------------------------------------------------|
|-2-2-2--2-2-2--2-2-2-------------2-2-2--2-2-2--2-2-2-------------|
|-2-2-2--2-2-2--2-2-2-<3/4\3>-----2-2-2--2-2-2--2-2-2-<3/4\3>-----|
|-0-0-0--0-0-0--0-0-0---------000-0-0-0--0-0-0--0-0-0---------000-|
  ___________________         _______________________         ___

 ----------------------------------------|
 ----------------------------------------|
 -10-10-10--10-10-10--10-10-7--9-10\-----|
 --x--x--x---x--x--x---x--x-9-11-12\-----|
 --8--8--8---8--8--8---8--8--------------|
 ------------------------------------000-|
                                     ___

 ----------------------------------------|
 ----------------------------------------|
 -10-10-10--10-10-10--10-10-7--9-10\-----|
 --x--x--x---x--x--x---x--x-9-11-12\-----|
 --8--8--8---8--8--8---8--8--------------|
 ------------------------------------000-|

End.





Comments


Popular Immolation tabs & chords
Burn With Jesus Tabs
Challenge The Storm Tabs
Christ's Cage Tabs
Close To A World Below Tabs
Harnessing Ruin Tabs
Lost Passion Tabs
No Jesus, No Beast Tabs
Of Martyrs And Men Tabs
Sinful Nature Tabs
Those Left Behind Tabs


Song lyrics



↑ Back to top | Tablatures and chords are parodies/interpretations of the original songs. You may use it for private study, scholarship, research or language learning purposes only
© 2014 AZChords.com Contact us | Privacy policy | DMCA | Add/correct tabs | Request tabs | Top 50 tabs