» » »

Immolation, Of Martyrs And Men Tabs (ver.1)

Artists:  A B C D E F G H I J K L M N O P Q R S T U V W X Y Z # 

Of Martyrs And Men Tabs (ver.1)

Immolation Tabs
Rating:
0/5 (0 votes)
Of Martyrs And Men lessons Tabs too difficult? Try these video lessons and learn fast
                
Band:  IMMOLATION


Tuning: 2 steps down (C)

Keys:
  b  - bend
  r  - release bend
  "  - tremelo pick
  x  - mute
 ___ - palm mute
  h  - hammer on
  p  - pull off
 / \ - slide




INTRO:
(Gtr 1)
|-7b(8)r------7b(8)r------6------|
|--------------------------------|
|--------------------------------|
|--------------------------------|
|--------------------------------|
|--------------------------------|

(Gtr 2)
|--------------------------------|
|-5b(6)r------5b(6)r------4------|
|--------------------------------|
|--------------------------------|
|--------------------------------|
|--------------------------------|

(Gtr 3)
|---------0-------0---------0--2-|
|---------0-------0---------0----|
|---------0-------0---------0----|
|-------2-----------2-----1------|
|-----2---------2-------1--------|
|-0---------0---------0----------| 10x


RIFF A:

|-----------------------------|
|-----------------------------|
|--------5"----5"-------------|
|-2--2"--------4"--4-3/4---3--|
|-2----------------x-x-----x--|
|-0----------------2-1/2br-1--| 4x


RIFF B:

|-------------------------|
|-------------------------|
|---------------3-3-3-3-4-|
|-3-----3-------x-x-x-x-x-|
|---2-----2-----1-1-1-1-2-|
|-----0-----1-0-----------| 4x
  _________

|---------------6-6-6-6-7-|
|---------------x-x-x-x-x-|
|---------------3-3-3-3-4-|
|-8-----8-----------------|
|---8-7---8---------------|
|-----------7-6-----------| 2x
  _________

|--------------------17-17-17-17-18-|
|-11-10-10-11-10-10---x--x--x--x--x-|
|-10--9--9-10--9--9--14-14-14-14-15-|
|-----------------------------------|
|-----------------------------------|
|-----------------------------------| 2x


RIFF A - 4x


RIFF B


RIFF C:
                  8x                        2x
|-------------------||-------1----------------|
|-------------------||------------------------|
|-------------------||-3----(3)---------------|
|-2--8-----8--5--4--||-x--------------5--7--5-|
|-2--5--0--x--7--6--||-1----(1)-------x--x--x-|
|-0--6--0--6--------||-------------0--3--5--3-|
        _                                   _

                  2x                        2x
|-------------------||-------1----------------|
|-------------------||------------------------|
|-------------------||-3----(3)---------------|
|-2--8-----8--5--4--||-x--------------5--7--5-|
|-2--5--0--x--7--6--||-1----(1)-------x--x--x-|
|-0--6--0--6--------||-------------0--3--5--3-|
        _                                   _

                  2x                        2x
|-------------------||-------1-------------------------1---------------|
|-------------------||-------------------------------------------------|
|-------------------||-3----(3)------------------3----(3)--------------|
|-2--8-----8--5--4--||-x--------------3/5--7--5--x--------------3/5--5-|
|-2--5--0--x--7--6--||-1----(1)-------x----x--x--1----(1)-------x----x-|
|-0--6--0--6--------||-------------0--1/3--5--3--------------0--1/3--3-|
        _


RIFF D:

|-5------------------------|
|-6------------------------|
|-7------------------------|
|-7------------------------|
|-5------------------------|
|------5-5-5-6-7-5-4-5-6-4-| 4x

|-5------------------------|
|-6------------------------|
|-7------------------------|
|-7------------------------|
|-5------------------------|
|------6-8-5-7-6-5-4-6-5-4-| 4x


RIFF E:

|---------------------------------|     |-----------1---(1)/4-4----|
|---------------------------------|     |-----------2---(2)/5-5----|
|---------------------4-----5-----|     |-4---------3---(3)/6-6----|
|-2--3/5--4"--3/5--4--x-0-4-x-5/8-|     |-x----3----3---(3)/6-6----|
|-2--5/7--6"--5/7--6--2-0-x-3-x---|     |-2----3-------------------|
|-0-----------------------2---3/6-| 3x  |------1-------------------| 4x


RIFF B (played under first part of solo)


UNDER SOLO:

|-3-------------|     |------------------|
|-5-------------|     |--9"--4"--3"--6"--|
|-4-----3"------|     |--9"--4"--3"--6"--|
|----2--x---4"--|     |-11"--6"--5"--8"--|
|----2--1"--x---|     |-11"--6"--5"--8"--|
|----0------2"--| 3x  |------------------|

|-3-------------|     |----------------|
|-5-------------|     |--9"--4"--3"--6-|
|-4-----3"------|     |--9"--4"--3"--6-|
|----2--x---4"--|     |-11"--6"--5"--8-|
|----2--1"--x---|     |-11"--6"--5"--8-|
|----0------2"--| 3x  |----------------|


RIFF D


OUTRO:
(Gtr 1)
|--------------7---------------7---------------7----------------7--|
|--------------8---------------8---------------8----------------8--|
|--------------9---------------9---------------9----------------9--|
|------------------------------------------------------------------|
|-2--------9"-----2--------9"-----2--------6"-----2---------9"-----|
|-0--0-0-0-7"-----0--0-0-0-7"-----0--0-0-0-8"-----0--0-0-0-11"-----| 2x
  ________        ________        ________           ________


(Gtr 1)
|--------------7---------------7---------------7----------------7--|
|--------------8---------------8---------------8----------------8--|
|--------------9---------------9---------------9----------------9--|
|------------------------------------------------------------------|
|-2--------9"-----2--------9"-----2--------6"-----2---------9"-----|
|-0--0-0-0-7"-----0--0-0-0-7"-----0--0-0-0-8"-----0--0-0-0-11"-----|

(Gtr 2)
|--------------7---------------7---------------7----------------7--|
|--------------8---------------8---------------8----------------8--|
|--------------9---------------9---------------9----------------9--|
|-2--2------------2--2------------2--2------------2--2-------------|
|-x--x------------x--x------------x--x------------x--x-------------|
|-0--0-----7"-----0--0-----7"-----0--0-----6"-----0--0------6"-----| 2x


(Gtr 1)
|--------------7---------------7---------------7----------------7--|
|--------------8---------------8---------------8----------------8--|
|--------------9---------------9---------------9----------------9--|
|------------------------------------------------------------------|
|-2--------9"-----2--------9"-----2--------6"-----2---------9"-----|
|-0--0-0-0-7"-----0--0-0-0-7"-----0--0-0-0-8"-----0--0-0-0-11"-----|

(Gtr 2)
|------------------------------------------------------------------|
|-------12121212\-------12121212\-------13131313\-------15151515\--|
|--------x-x-x-x---------x-x-x-x---------x-x-x-x---------x-x-x-x---|
|--------9-9-9-9\--------9-9-9-9\-------10101010\-------12121212\--|
|------------------------------------------------------------------|
|-0---------------0---------------0---------------0----------------|

(Gtr 3)
|-12----\7--------12----\7--------11----\8--------8----/10---------|
|------------------------------------------------------------------|
|------------------------------------------------------------------|
|------------------------------------------------------------------|
|------------------------------------------------------------------|
|------------------------------------------------------------------| 4x
            

comments powered by Disqus
↑ Back to top | Immolation Tabs for Of Martyrs And Men. Lyrics for acoustic guitar and electric guitar. Tablatures and chords are parodies/interpretations of the original songs. You may use it for private study, scholarship, research or language learning purposes only