» » »

Lost Passion Tabs (ver.1)

Artists:  A B C D E F G H I J K L M N O P Q R S T U V W X Y Z # 

Lost Passion Tabs (ver.1)

Immolation
Rating:
0/5 (0 votes)

Hard to play? Try these video lessons and learn fast.
                Band:   IMMOLATION


Tuning: 2 steps down (C)

Keys:
  x  - mute
 / \ - slide
 ___ - palm mute
 < > - pinch harmonic
  b  - bend
  r  - release bend
  "  - tremelo pick
  p  - pull off
  h  - hammer on


RIFF Aa:
(Gtr 1)
|-------------------------|
|-------------------------|
|-------------------------|
|-------8-\7---7-/8--8--8-|
|-------0-(0)--x-----x--x-|
|--2-----------5-/6--6--6-|

(Gtr 2)
|-------------------------|
|-11-11-11-11-10/11-11-11-|
|--x--x--x--x--x----10-10-|
|--8--8--8--8--7/-8--8--8-|
|-------------------------|
|-------------------------| 16x


RIFF B:

|----------------------------------3------------------------------------|
|----------------------------------0--------------7/8\7-7--7/8\7\6/7-7--|
|-----<6>br------------------3-----0--0"--4"--3"--8/9\8-8--8/9\8\7/8-8--|
|----------------------------2--------5"--6"--5"------------------------|
|-----------2--------1br--0--1--0---------------------------------------|
|-0-0-------0---3br-------0--0--0---------------------------------------| 2x
  ___                      _     _


RIFF Aa - 12x


RIFF Ab:
(Gtr 1)
|-------------------------|
|-------------------------|
|-------------------------|
|-------8-\7---7-/8--8--8-|
|-------0-(0)--x-----x--x-|
|--2-----------5-/6--6--6-|

(Gtr 2)
|-------------------------|
|-11-11-11-11-10/11-11-11-|
|--x--x--x--x--x----10-10-|
|--8--8--8--8--7/-8--8--8-|
|-------------------------|
|-------------------------| 8x

(Gtr 3)
|------------------------------------------------|
|------------------------------------------------|
|--------2-----3--3--3--3--2---------------------|
|--------------x--x--x--x--x---------------------|
|--------------1--1--1--1--0---------------------|
|--2---------------------------------------------| 4x


RIFF C:

|-------------------------------|
|-------------------------------|
|-------------------------------|
|-5"---(5)----------5-------0---|
|-------6"----5"----4----5--5---|
|-------------------3----3--3---| 4x
                         _


RIFF Aa - 12x

Gtr 3 throws this in at the start of the riff:
|---------------------------------------------------------------|
|---------------------------------------------------------------|
|-10b-----------------------------------------------------------|
|---------------------------------------------------------------|
|---------------------------------------------------------------|
|---------------------------------------------------------------|


RIFF Ab


RIFF c - 4x


FILL:

|----|
|----|
|----|
|----|
|-3--|
|----|


RIFF Da:

|------------------|
|------------------|
|---------4-4-<4>b-|
|---------x-x------|
|---------2-2------|
|-2p1-2p0----------| 8x

|-------------------------------------------------------------------
|-------------------------------------------------------------------
|-----10-10-10-10-10-9-9-------------10-10-10-10-10-9-9-------------
|------9--9--9--9--9-8-8--------------9--9--9--9--9-8-8-------------
|------8--8--8--8--8-7-7--------------8--8--8--8--8-7-7-------------
|-000--------------------2p1-2p0-000--------------------2p1-2p0-000-
  ___                            ___                            ___

 -----------------------------------------------------------------
 -----------------------------------------------------------------
 -----4-4-<4>b---------4-4-<4>b---------4-4-<4>b---------4-4-<4>b-
 -----x-x--------------x-x--------------x-x--------------x-x------
 -----2-2--------------2-2--------------2-2--------------2-2------
 -2p0----------2p1-2p0----------2p1-2p0----------2p1-2p0----------

 -------------------------------------------------------------------
 -------------------------------------------------------------------
 -----10-10-10-10-10-9-9-------------10-10-10-10-10-9-9-------------
 ------9--9--9--9--9-8-8--------------9--9--9--9--9-8-8-------------
 ------8--8--8--8--8-7-7--------------8--8--8--8--8-7-7-------------
 -000--------------------2p1-2p0-000--------------------2p1-2p0-000-
  ___                            ___                            ___

 -----------------------------------------------------------------
 -----------------------------------------------------------------
 -----4-4-<4>b---------4-4-<4>b---------4-4-<4>b---------4-4-<4>b-
 -----x-x--------------x-x--------------x-x--------------x-x------
 -----2-2--------------2-2--------------2-2--------------2-2------
 -2p0----------2p1-2p0----------2p1-2p0----------2p1-2p0----------

 -------------------------------------------------------------------|
 -------------------------------------------------------------------|
 -----10-10-10-10-10-9-9-------------10-10-10-10-10-9-9-------------|
 ------9--9--9--9--9-8-8--------------9--9--9--9--9-8-8-------------|
 ------8--8--8--8--8-7-7--------------8--8--8--8--8-7-7-------------|
 -000--------------------2p1-2p0-000--------------------2p1-2p0-000-|
  ___                            ___                            ___


RIFF B - 4x


RIFF E:

|-3-----------------------4--3----------------------|     |------|
|-0-----------------------x--0----------------------|     |------|
|-0-----------------------1--0--------------------3-|     |------|
|--------------2"--1h2-1"-----------------3"--2"--2-|     |-0"---|
|----3"-0"-1"-------------------3"-0"-1"------------|     |----3-|
|---------------------------------------------------| 8x  |------|
     ____________________       ________________


RIFF F:

|---------------|      |--------|
|---------------|      |--------|
|---------------|      |--------|
|---------------|      |--------|
|-----2--5-5-5\-|      |-----2--|
|-0h1-0---------| 16x  |-0h1-0--|


RIFF Db:

|-------------------------------------------------------------------
|-------------------------------------------------------------------
|-----10-10-10-10-10-9-9-------------10-10-10-10-10-9-9-------------
|------9--9--9--9--9-8-8--------------9--9--9--9--9-8-8-------------
|------8--8--8--8--8-7-7--------------8--8--8--8--8-7-7-------------
|-000--------------------2p1-2p0-000--------------------2p1-2p0-000-
  ___                            ___                            ___

 -----------------------------------------------------------------
 -----------------------------------------------------------------
 -----4-4-<4>b---------4-4-<4>b---------4-4-<4>b---------4-4-<4>b-
 -----x-x--------------x-x--------------x-x--------------x-x------
 -----2-2--------------2-2--------------2-2--------------2-2------
 -2p0----------2p1-2p0----------2p1-2p0----------2p1-2p0----------

 -------------------------------------------------------------------
 -------------------------------------------------------------------
 -----10-10-10-10-10-9-9-------------10-10-10-10-10-9-9-------------
 ------9--9--9--9--9-8-8--------------9--9--9--9--9-8-8-------------
 ------8--8--8--8--8-7-7--------------8--8--8--8--8-7-7-------------
 -000--------------------2p1-2p0-000--------------------2p1-2p0-000-
  ___                            ___                            ___

 -----------------------------------------------------------------
 -----------------------------------------------------------------
 -----4-4-<4>b---------4-4-<4>b---------4-4-<4>b---------4-4-<4>b-
 -----x-x--------------x-x--------------x-x--------------x-x------
 -----2-2--------------2-2--------------2-2--------------2-2------
 -2p0----------2p1-2p0----------2p1-2p0----------2p1-2p0----------

 -------------------------------------------------------------------|
 -------------------------------------------------------------------|
 -----10-10-10-10-10-9-9-------------10-10-10-10-10-9-9-------------|
 ------9--9--9--9--9-8-8--------------9--9--9--9--9-8-8-------------|
 ------8--8--8--8--8-7-7--------------8--8--8--8--8-7-7-------------|
 -000--------------------2p1-2p0-000--------------------2p1-2p0-000-|
  ___                            ___                            ___


OUTRO:
(Gtr 1)
|---------------------------------------------|
|---------------------------------------------|
|-2----3---3---3------------------------------|
|-1----2---2---2------------------------------|
|-0----1---1---1------------------------------|
|---------------------------------------------|

(Gtr 2)
|---------------------------------------------|
|---------------------------------------------|
|-2----3---3---3------------------------------|
|-1----2---2---2------------------------------|
|-0----1---1---1-----------<5--4-----4--3--3>-|
|---------------------3--2--------3-----------|

|----------------------------------|
|----------------------------------|
|-3-3-3-3--------------------------|
|-2-2-2-2--------0--0-(0)-0--3--3--|
|-1-1-1-1--------5--4-(4)-4--3--3--|
|----------3--2--------3-----------|

fade out....

End.
            
Hard to play? Try these video lessons and learn fast. | Correct




comments powered by Disqus
↑ Back to top | Tablatures and chords are parodies/interpretations of the original songs. You may use it for private study, scholarship, research or language learning purposes only