» » »

Immolation, Here In After Tabs (ver.1)

Artists:  A B C D E F G H I J K L M N O P Q R S T U V W X Y Z # 

Here In After Tabs (ver.1)

Immolation Tabs
 Rating:
4/5 (4 votes)
Here In After lessons Tabs too difficult? Try these video lessons and learn fast
1
                IMMOLATION -"HERE IN AFTER",


	Wow this was a hard f**king song to figure out. There are probably numerous
errors and what not in this, but it's an Immolation song so what do you expect? 

Legend: . = palm mute
        b/\ = bend up
        ~ = vibrato
        ah = artificial harmonic
	h = hammer on
	p = pull off
	
I think this is in "C".

Riff A
|------------------------------------------|
|------------------------------------------|
|------------------------------------------|
|------------------------------------------|
|-------b/\-------b/\--------b/\-------b/\-|
|-0-00000-2--1-1111-3--0-00000-2--1-1111-3-|
  . .....    . ....    . .....    . ....


Riff B       (this part played twice)   First time   Second Time
|-------------------------------------|------------|--------------|
|-------------------------------------|------------|--------------|
|-------------------------------------|--------11~-|--------------|
|-------------------------------------|------------|--------------|
|-------b/\---------7---7---------b/\-|---------9~-|---------7ah~-|
|-0-00000-2-1-11111---8---7~ah00000-2-|-1-1111-----|-1-11111------|
  . .....   . .....           .....     . ....       . .....


Riff C
|----------------------|
|----------------------|
|----------------------|
|----------------------|
|-----2p0-2h5-2--------|
|-0-0-----------3-3tr4-|
  . .


Riff D	(played three times)	(then...)	Riff D1
|------------------------------|--------------------------|
|--------------b/\-------------|------------b/\-----------|
|---6-6-6-6-6-6-7--(guitar-one)|-4-4-4-4-4-4-5------------|
|------------------------------|--------------------------|
|--------------2222------------|---------------2-b/\--b/\-|
|-----(guitar-two)-444411111---|-------------------3-0--1-|
               .............


Riff E                                 Riff E1
|-------------------------------------|----------------------------------------|
|-------------------------------------|----------------------------------------|
|-------------------------------------|----------------------------------------|
|----------33335555--------22222222---|----------------------------------------|
|------------------2222---------------|---------3333333333-----55555-----------|
|-000011110------------1111-----------|-00001111----------33333-----4444444444-|
  .................................     ......................................


Riff F
|--------------------------------------------------------------------------------------------|
|--------------------------------------------------------------------------------------------|
|-4-4-4-------4-4-4-------3~-4-4-4-----7-5-4-------4-4-4----------4-4-4-------3~-7-6----5\4\-|
|-2-2-2-5\4-6-2-2-2-4\3/5----2-2-2-4\3-5-3-2-3-6-5-2-2-2-4\3/5----2-2-2-4\3/5----5-4-7/-3\2\-|
|-------3\2-4-------2\1/3----------2\1-------1-4-3-------2\1/3----------2\1/3--------5/------|
|--------------------------------------------------------------1~----------------------------|


Riff G
|----------------------------|
|----------------------------|
|----------------------------|
|-5~-5~-2ah~-----------------|
|-7~-7~--------------b/\-----|
|------------3-3h4p3p0-3-2p0-|


Fill
|-------|
|-------|
|-------|
|-5~-5~-|
|-7~-7~-|
|-------|


Riff H
|-----------------------|
|-----------------------|
|-------444-------------|
|----333----------------|
|-222------222111-------|
|----------------333222-|
  .....................

Riff I
|----------------------------------|
|----------------------------------|
|----------------------------------|
|----------------------------------|
|---------44444444--------55555555-|
|-33333333--------22222222---------|
  ................................

Riff J
|-----------------|
|-----------------|
|-----------------|
|---4-------------|
|-5-2------2ah~p1-|
|-3---2~-0--------|


Riff Order

Riff A x2
Riff B x2
Riff C x4
Riff D x2
Riff E+E1 x1
Riff F x1
Riff A x1
Riff B x2
Riff C x4
Riff G x4
Fill
Riff H x3
Riff I x1
Riff H x3
Riff I x1
Riff F x1
Riff H x4
Riff J x12
Riff D x2
Riff E+E1 x1
Riff G x4
Outro is fill plus the artificial harmonic in riff G let ring

Phew...Thats it!
            
Submit corrections

comments powered by Disqus
↑ Back to top | Immolation Tabs for Here In After. Lyrics for acoustic guitar and electric guitar. 1 Tablatures and chords are parodies/interpretations of the original songs. You may use it for private study, scholarship, research or language learning purposes only