>
 >
Harnessing Ruin

Harnessing Ruin Guitar Tabs

Immolation - Harnessing Ruin chords, tabs, tablatures, lyrics

Guitar lessons | Add/correct | Request | Top 50 tabs Artists:  A B C D E F G H I J K L M N O P Q R S T U V W X Y Z 0-9

Harnessing Ruin Guitar Tabs – Immolation

CD, Sheet music, Poster

Do you like Harnessing Ruin? Share with your friends now
Tabs
                        HARNESSING RUIN
                            As recorded by Immolation
                      (From the 2005 Album HARNESSING RUIN)

I want to thank Father Death for the intro.


Words and Music by Immolation
Arranged by Immolation

Gtr I (C F A# D# G C) - 'Robert Vigna'
Gtr II (C F A# D# G C) - 'Bill Taylor'

   Intro
    Q=117
   4/4                          2/4
    Gtr I
     |-3--| |-3-| |----3----|    |-3-| |-3-|
     E E  Q E E E E E E  E +E    E E E E E E    4x
||-----------------------------|----------------||
||o-/0-0-/3-3-3-3-3-3---/2-(2)-|-2-2-2-2-2-2---o||
||--/4-4-/4-4-4-4-4-4-3-/3-(3)-|-3-3-3-3-3-3----||
||-----------------------------|----------------||
||o----------------------------|---------------o||
||-----------------------------|----------------||
|
|   Gtr II
|    |-3--| |-3-| |----3----|    |-3-| |-3-|
|    E E  Q E E E E E E  E +E    E E E E E E    4x
||--/0-0-/3-0-3-0-3-----/2-(2)-|-0-2-0-2-0-2----||
||o-----------------5-4--------|---------------o||
||-----------------------------|----------------||
||-----------------------------|----------------||
||o----------------------------|---------------o||
||-----------------------------|----------------||


   4/4                          2/4
     |-3--| |-3-| |----3----|    |-3-| |-3-|
     E E  Q E E E E E E  E +E    E E E E E E  4x
||-----------------------------|--------------||
||o-/0-0-/3-3-3-3-3-3---/2-(2)-|-2-2-2-2-2-2-o||
||--/4-4-/4-4-4-4-4-4-3-/3-(3)-|-3-3-3-3-3-3--||
||-----------------------------|--------------||
||o----------------------------|-------------o||
||-----------------------------|--------------||
|
|    |-3--| |-3-| |----3----|    |-3-| |-3-|
|    E E  Q E E E E E E  E +E    E E E E E E  4x
||--/0-0-/3-0-3-0-3-----/2-(2)-|-0-2-0-2-0-2--||
||o-----------------5-4--------|-------------o||
||-----------------------------|--------------||
||-----------------------------|--------------||
||o----------------------------|-------------o||
||-----------------------------|--------------||


    Q=135
   6/4
       |-3-|        |--3--|                |-3-|        |-3--|
    E. E E Q Q +E   E  E  Q. +E  +S     E. E E Q Q +E   E E  Q.  E +S    4x
||------------------------------------|----------------------------------||
||o----9-9-9-8-(8)--9--9--9--(9)-(9)--|----7-7-7-6-(6)------------------o||
||--0--0-0-0-0-(0)--0--0--0--(0)-(0)--|----6-6-6-5-(5)--6-6--6---5-(5)---||
||--0---------------------------------|----------------------------------||
||o-----------------------------------|-----------------4-4--4---3-(3)--o||
||------------------------------------|----------------------------------||
|
|   W                 +Q      Q         H.                H.             4x
||------------------------------------|----------------------------------||
||o-----------------------------------|---------------------------------o||
||------------------------------------|----------------------------------||
||--5-----------------(5)-----7-------|-8-----------------3--------------||
||o-5-----------------(5)-----7-------|-8-----------------3-------------o||
||--3-----------------(3)-----5-------|-6-----------------1--------------||


    Q=130
   4/4
    Gtrs I, II
    S S S S S S S S S S S S S S S S
||----------------------------------|
||o---------------------------------|
||----------------------------------|
||--5-5-5-5-5-5-6-6-6-6-3-3-3-3-3-3-|
||o---------------------------------|
||--3-3-3-3-3-3-4-4-4-4-1-1-1-1-1-1-|


  S S S S S S  S  S  S  S S +S  S +S  S +S   4x
|-------------------------------------0-(0)--||
|-------------------------------------0-(0)-o||
|-------------------------------------0-(0)--||
|-9-9-9-9-9-9-10-10-10-10-5-(5)-6-(6)--------||
|-------------------------------------------o||
|-7-7-7-7-7-7--8--8--8--8-3-(3)-4-(4)--------||


    Gtr I
    PM----|
    S S S S E E E E E E  3x Q.   E E E  Q
||-----------------------||----------------|
||o---------------------o||----------------|
||-----------------------||----------------|
||-----------------------||------------10--|
||o---------2-5-5-3-3S6-o||-4----5-5S6--8--|
||--0-0-0-0-0-3-3-1-1S4--||-2----5-5S6--8--|
|
|   Gtr II
|   PM----|
|   S S S S E E E E E E  3x Q.   E E E  Q
||-----------------------||----------------|
||o---------------------o||------------13--|
||------------7-7-5-5S8--||----------------|
||------------5-5-3-3S6--||------------10--|
||o---------2-----------o||-4----5-5S6-----|
||--0-0-0-0-0------------||-2----5-5S6-----|


    PM----|
    S S S S E E E E E E  3x Q.   E E E  Q
||-----------------------||-----------------|
||o---------------------o||-----------------|
||-----------------------||-----------------|
||-----------------------||------------10---|
||o---------2-5-5-3-3S6-o||-4----5-5S6--8---|
||--0-0-0-0-0-3-3-1-1S4--||-2----5-5S6--8---|
|
|   PM----|
|   S S S S E E E E E E  3x Q.   E E E  Q
||-----------------------||-----------------|
||o---------------------o||------------13---|
||------------7-7-5-5S8--||-----------------|
||------------5-5-3-3S6--||------------10---|
||o---------2-----------o||-4----5-5S6------|
||--0-0-0-0-0------------||-2----5-5S6------|


    Gtrs I, II
    S S S S S S S S S S S S S S S S
||----------------------------------|
||o---------------------------------|
||----------------------------------|
||--5-5-5-5-5-5-6-6-6-6-3-3-3-3-3-3-|
||o---------------------------------|
||--3-3-3-3-3-3-4-4-4-4-1-1-1-1-1-1-|


  S S S S S S  S  S  S  S S +S  S +S  S +S    4x
|-------------------------------------0-(0)---||
|-------------------------------------0-(0)--o||
|-------------------------------------0-(0)---||
|-9-9-9-9-9-9-10-10-10-10-5-(5)-6-(6)---------||
|--------------------------------------------o||
|-7-7-7-7-7-7--8--8--8--8-3-(3)-4-(4)---------||


    Gtr I
    PM----|
    S S S S E E E E E E  3x Q.   E E E  Q
||-----------------------||----------------|
||o---------------------o||----------------|
||-----------------------||----------------|
||-----------------------||------------10--|
||o---------2-5-5-3-3S6-o||-4----5-5S6--8--|
||--0-0-0-0-0-3-3-1-1S4--||-2----5-5S6--8--|
|
|   Gtr II
|   PM----|
|   S S S S E E E E E E  3x Q.   E E E  Q
||-----------------------||----------------|
||o---------------------o||------------13--|
||------------7-7-5-5S8--||----------------|
||------------5-5-3-3S6--||------------10--|
||o---------2-----------o||-4----5-5S6-----|
||--0-0-0-0-0------------||-2----5-5S6-----|


    PM----|
    S S S S E E E E E E  3x Q.   E E E  Q
||-----------------------||-----------------|
||o---------------------o||-----------------|
||-----------------------||-----------------|
||-----------------------||------------10---|
||o---------2-5-5-3-3S6-o||-4----5-5S6--8---|
||--0-0-0-0-0-3-3-1-1S4--||-2----5-5S6--8---|
|
|   PM----|
|   S S S S E E E E E E  3x Q.   E E E  Q
||-----------------------||-----------------|
||o---------------------o||------------13---|
||------------7-7-5-5S8--||-----------------|
||------------5-5-3-3S6--||------------10---|
||o---------2-----------o||-4----5-5S6------|
||--0-0-0-0-0------------||-2----5-5S6------|


 Solo (Robert)
  Q=135
  Gtr I
  S  S   S  S S S S S  S  S  S  S  S  S  S  S
|---------------------------------------------|
|-5--5---5--5-5-5-5-5S=8--8--8--8--8--8--8--8-|
|-4-(4)-(4)-----------------------------------|
|---------------------------------------------|
|---------------------------------------------|
|---------------------------------------------|
|
| Gtr II
| S  S   S  S S S S S  S  S  S  S  S  S  S  S
|---------------------------------------------|
|---------------------------------------------|
|---------------------------------------------|
|-9--9---9--9-9-9-9-9-10-10-10-10-10-10-10-10-|
|-7--7---7--7-7-7-7-7--8--8--8--8--8--8--8--8-|
|---------------------------------------------|


                          ~
  S S S S S S S S S S S S Q
|-----------------------------------|
|-8-8-8-8-8-8-8-8-8-8-8-8-5---------|
|-----------------------------------|
|-----------------------------------|
|-----------------------------------|
|-----------------------------------|
|
| S S S S S S S S S S S S S S S S
|-----------------------------------|
|-----------------------------------|
|-----------------------------------|
|-7-7-7-7-7-7-7-7-4-4-4-4-4-4-4-4---|
|-5-5-5-5-5-5-5-5-2-2-2-2-2-2-2-2---|
|-----------------------------------|


                                           7/8
  |----3----| |-3--|
  E E E E E E S S  S  S  S  S  S  E         S S S S S S +S    Q.    +S
|-----------5-----------------------------|-----------------/12----(12)----|
|-5-----5-8---7-5-------------------------|-----5S8-8-5-(5)----------------|
|---4-7------------7--5--7--------4-------|-5-7----------------------------|
|---------------------------6--5----------|--------------------------------|
|-----------------------------------------|--------------------------------|
|-----------------------------------------|--------------------------------|
|
|                                             PM|   PM|       PM-|
| S S S S S S S S  S  S  S  S  S  S  S  S   E S S E S S  E    S  S   E
|-----------------------------------------|--------------------------------|
|-----------------------------------------|--------------------------------|
|-----------------------------------------|--------------------------------|
|-9-9-9-9-9-9-9-9-10-10-10-10-10-10-10-10-|--------------------------------|
|-7-7-7-7-7-7-7-7--8--8--8--8--8--8--8--8-|-7-----5------7-----------5-----|
|-----------------------------------------|-5-0-0-3-0-0--5----0--0---3-----|


 4/4
   +S    Q  +S    S  S  E  E.     S  S  S
|-(12)-/12-(12)-/17-17-17-12----/19-19-19----------------|
|--------------------------------------------------------|
|--------------------------------------------------------|
|--------------------------------------------------------|
|--------------------------------------------------------|
|--------------------------------------------------------|
|
|   S    S   S    S  S  S  S  S   S  S  S  S  S  S  S  S
|--------------------------------------------------------|
|--------------------------------------------------------|
|--------------------------------------------------------|
|---9----9---9----9--9--9--9--9--10-10-10-10-10-10-10-10-|
|---7----7---7----7--7--7--7--7---8--8--8--8--8--8--8--8-|
|--------------------------------------------------------|


   +E     Q     S  S  Q  Q
|-(19)---12---/20-20-20-19--------------------|
|---------------------------------------------|
|---------------------------------------------|
|---------------------------------------------|
|---------------------------------------------|
|---------------------------------------------|
|
|   S  S  S S   S  S  S  S S S S S S S S S
|---------------------------------------------|
|---------------------------------------------|
|---------------------------------------------|
|---7--7--7-7---7--7--7--7-4-4-4-4-4-4-4-4----|
|---5--5--5-5---5--5--5--5-2-2-2-2-2-2-2-2----|
|---------------------------------------------|


   S  S  S  S  S  S  S  S  S  S  S  E     S  S  S
|-19-20-24-20-19----------------------------------|
|----------------20-19-20----19-20----------------|
|-------------------------19-------19----12-11----|
|-----------------------------------------------9-|
|-------------------------------------------------|
|-------------------------------------------------|
|
|  S  S  S  S  S  S  S  S  S  S  S  S  S  S  S  S
|-------------------------------------------------|
|-------------------------------------------------|
|-------------------------------------------------|
|--9--9--9--9--9--9--9--9-10-10-10-10-10-10-10-10-|
|--7--7--7--7--7--7--7--7--8--8--8--8--8--8--8--8-|
|-------------------------------------------------|


 7/8
   S S  S S  S S  S S  S S S    S  +E
|-----------------------------------------|
|------------------------------13-(13)----|
|-11---12---11---12---11---9--------------|
|----9----9----9----9----9----------------|
|-----------------------------------------|
|-----------------------------------------|
|
|       PM|       PM|      PM|
|  E    S S  E    S S  E   S S  E
|-----------------------------------------|
|-----------------------------------------|
|-----------------------------------------|
|-----------------------------------------|
|--7---------5---------7--------5---------|
|--5----0-0--3----0-0--5---0-0--3---------|


 4/4
          ~~~
   +E     Q.    S  S  S  S  S  S  S  S
|--------------------------------------------------|
|-(13)---12----12-13-15-13----------12-------------|
|--------------------------14-12-14----------------|
|--------------------------------------------------|
|--------------------------------------------------|
|--------------------------------------------------|
|
|   S  S  S  S  S  S  S  S  S  S  S  S  S  S  S  S
|--------------------------------------------------|
|--------------------------------------------------|
|--------------------------------------------------|
|---9--9--9--9--9--9--9--9-10-10-10-10-10-10-10-10-|
|---7--7--7--7--7--7--7--7--8--8--8--8--8--8--8--8-|
|--------------------------------------------------|


   S  S  S  S  S  S  S  S  S  S    S  S  S  S  S  S
|----12-13-------------12-15-12---12----------12-15---|
|-15----------12-13-15------------------13-15---------|
|----------14------------------------15---------------|
|-----------------------------------------------------|
|-----------------------------------------------------|
|-----------------------------------------------------|
|
|  S  S  S  S  S  S  S  S  S  S S  S  S  S  S  S
|-----------------------------------------------------|
|-----------------------------------------------------|
|-----------------------------------------------------|
|--7--7--7--7--7--7--7--7--4--4-4--4--4--4--4--4------|
|--5--5--5--5--5--5--5--5--2--2-2--2--2--2--2--2------|
|-----------------------------------------------------|


    ~~~~~~~~~~~
    Q      +E    S  S  E  S  S  S  S  S  S
|-/19-----(19)-/20-20-20----------------------------|
|------------------------20-20-20-18-18-18h=========|
|---------------------------------------------------|
|---------------------------------------------------|
|---------------------------------------------------|
|---------------------------------------------------|
|
|   S S S   S    S  S  S  S  S  S  S  S  S  S  S  S
|---------------------------------------------------|
|---------------------------------------------------|
|---------------------------------------------------|
|---9-9-9---9----9--9--9--9-10-10-10-10-10-10-10-10-|
|---7-7-7---7----7--7--7--7--8--8--8--8--8--8--8--8-|
|---------------------------------------------------|


 7/8
   |--3--|  |--3--|  |--3--|
   E  E  E  E  E  E  E  E  E  E
|----------------------------------|
|-20-20-20-17-17-17----------------|
|-------------------17-16-16-15----|
|----------------------------------|
|----------------------------------|
|----------------------------------|
|
|     PM|      PM|      PM|
|  E  S  S  E  S  S  E  S  S  E
|----------------------------------|
|----------------------------------|
|----------------------------------|
|----------------------------------|
|--7--------5--------7--------5----|
|--5--0--0--3--0--0--5--0--0--3----|


 4/4
    E  E  E  E           S  S  S  S  S  S  S  S
|-/12-12-12-12---------/13-13-13-13-13-13-13-13s|
|-----------------------------------------------|
|----------------------/10-10-10-10-10-10-10-10s|
|-----------------------------------------------|
|-----------------------------------------------|
|-----------------------------------------------|
|
|   S  S  S  S S S S S   S  S  S  S  S  S  S  S
|-----------------------------------------------|
|-----------------------------------------------|
|-----------------------------------------------|
|---9--9--9--9-9-9-9-9--10-10-10-10-10-10-10-10-|
|---7--7--7--7-7-7-7-7---8--8--8--8--8--8--8--8-|
|-----------------------------------------------|


   S  S  S  S  S  S  S  S S S S S S S S S
|-10-10-10-10-10-10-10-10s8-8-8-8s7-7-7-7--|
|------------------------------------------|
|--7--7--7--7--7--7--7--7s5-5-5-5s4-4-4-4--|
|------------------------------------------|
|------------------------------------------|
|------------------------------------------|
|
|  S  S  S  S  S  S  S  S S S S S S S S S
|------------------------------------------|
|------------------------------------------|
|------------------------------------------|
|--7--7--7--7--7--7--7--7-4-4-4-4-4-4-4-4--|
|--5--5--5--5--5--5--5--5-2-2-2-2-2-2-2-2--|
|------------------------------------------|


  S S S S S S S S  S  S +S  +S   S  S +S  +S
|-7-7-7-7-7-7-7-7S=8--8-(8)-(8)--5--5-(5)-(5)-|
|---------------------------------------------|
|-4-4-4-4-4-4-4-4S=5--5-(5)-(5)--2--2-(2)-(2)-|
|---------------------------------------------|
|---------------------------------------------|
|---------------------------------------------|
|
| S S S S S S S S  S  S  S   S   S  S  S   S
|---------------------------------------------|
|---------------------------------------------|
|---------------------------------------------|
|-9-9-9-9-9-9-9-9-10-10-10--10--10-10-10--10--|
|-7-7-7-7-7-7-7-7--8--8--8---8---8--8--8---8--|
|---------------------------------------------|


 7/8
  S S S S  S  S  S  S  S  S  S  S  S  S
|------------------------------------------|
|-8-8-8-8S10-10-10-10S12-12-12-12-12-12----|
|------------------------------------------|
|-5-5-5-5S=7--7--7--7S=9--9--9--9--9--9----|
|------------------------------------------|
|------------------------------------------|
|
|   PM|    PM|      PM|
| E S S E  S  S  E  S  S  E
|------------------------------------------|
|------------------------------------------|
|------------------------------------------|
|------------------------------------------|
|-7-----5--------7--------5----------------|
|-5-0-0-3--0--0--5--0--0--3----------------|


    Q=140
   4/4
    Gtrs I, II
    W          +W           W          +H.      Q          4x
||-----------|------------|----------|---------------------||
||o----------|------------|----------|--------------------o||
||-----------|------------|----------|---------------------||
||--5--------|-(5)--------|-2--------|-(2)------5b5.5r=====||
||o----------|------------|----------|--------------------o||
||-----------|------------|----------|---------------------||


    Gtr I
    W             +W              W             +H.        Q
||--------------|---------------|-------------|-----------------------||
||o-------------|---------------|-------------|----------------------o||
||--------------|---------------|-------------|-----------------------||
||--5-----------|-(5)-----------|-2-----------|-(2)--------5b5.5r=====||
||o-------------|---------------|-------------|----------------------o||
||--------------|---------------|-------------|-----------------------||
|
|   Gtr II
|   Q  Q  Q  Q     Q   Q  Q  Q    Q  Q  Q  Q     Q   Q  Q  Q
||--------------|---------------|-------4-----|-----------------------||
||o-6--5--5--8--|--6---5--5--8--|-6--5-----6--|--6---5--5--8---------o||
||--------------|---------------|-------------|-----------------------||
||--------------|---------------|-------------|-----------------------||
||o-------------|---------------|-------------|----------------------o||
||--------------|---------------|-------------|-----------------------||


   W                +W
|-----------------|------------------|
|-----------------|------------------|
|-----------------|------------------|
|--5--------------|-(5)--------------|
|-----------------|------------------|
|-----------------|------------------|
|
|  Q   Q   Q   Q     Q    Q   Q   Q
|-13--12--12--15--|-13---12--12--15--|
|-----------------|------------------|
|-10---9---9--12--|-10----9---9--12--|
|-----------------|------------------|
|-----------------|------------------|
|-----------------|------------------|


   W                +H.           Q
|-----------------|-------------------------
|-----------------|-------------------------
|-----------------|-------------------------
|--2--------------|-(2)-----------5b5.5r====
|-----------------|-------------------------
|-----------------|-------------------------
|
|  Q   Q   Q   Q     Q    Q   Q   Q
|-13--12--16--13--|-13---12--12--15---------
|-----------------|-------------------------
|-10---9--13--10--|-10----9---9--12---------
|-----------------|-------------------------
|-----------------|-------------------------
|-----------------|-------------------------


   W                +W
|-----------------|------------------|
|-----------------|------------------|
|-----------------|------------------|
|--5--------------|-(5)--------------|
|-----------------|------------------|
|-----------------|------------------|
|
|  Q   Q   Q   Q     Q    Q   Q   Q
|-13--12--12--15--|-13---12--12--15--|
|-----------------|------------------|
|-10---9---9--12--|-10----9---9--12--|
|-----------------|------------------|
|-----------------|------------------|
|-----------------|------------------|


   W                +H.            Q
|-----------------|--------------------------|
|-----------------|--------------------------|
|-----------------|--------------------------|
|--2--------------|-(2)------------5b5.5r====|
|-----------------|--------------------------|
|-----------------|--------------------------|
|
|  Q   Q   Q   Q     Q    Q   Q   +Q
|-13--12--16--13--|-13---12--12--(12)--------|
|-----------------|--------------------------|
|-10---9--13--10--|-10----9---9---(9)--------|
|-----------------|--------------------------|
|-----------------|--------------------------|
|-----------------|--------------------------|


   H     S  S  S  S  S  S  S  S
|-------------------------------|
|-------------------------------|
|-14----14-14-14-14-14-14-14-14-|
|-------------------------------|
|-------------------------------|
|-------------------------------|
|
|  W
|-------------------------------|
|-------------------------------|
|-------------------------------|
|-------------------------------|
|--8----------------------------|
|--6----------------------------|


 9/8
   S   S  S  S  S  S  S  S  S   S  S  S  S  S  S  S  S  S
|---------------------------------------------------------|
|---------------------------------------------------------|
|-14--14-14-14-14-14-14-14-14--14-14-14-14-14-14-14-14-14-|
|---------------------------------------------------------|
|---------------------------------------------------------|
|---------------------------------------------------------|
|
| +W                       +E
|---------------------------------------------------------|
|---------------------------------------------------------|
|---------------------------------------------------------|
|---------------------------------------------------------|
|-(8)----------------------(8)----------------------------|
|-(6)----------------------(6)----------------------------|


    Q=130
   4/4
    Gtrs I, II
    S S S S S S S S S S S S S S S S
||----------------------------------|
||o---------------------------------|
||----------------------------------|
||--5-5-5-5-5-5-6-6-6-6-3-3-3-3-3-3-|
||o---------------------------------|
||--3-3-3-3-3-3-4-4-4-4-1-1-1-1-1-1-|


  S S S S S S  S  S  S  S S +S  S +S  S +S   4x
|-------------------------------------0-(0)--||
|-------------------------------------0-(0)-o||
|-------------------------------------0-(0)--||
|-9-9-9-9-9-9-10-10-10-10-5-(5)-6-(6)--------||
|-------------------------------------------o||
|-7-7-7-7-7-7--8--8--8--8-3-(3)-4-(4)--------||


    Gtr I
    PM----|
    S S S S E E E E E E  3x Q.   E E E  Q
||-----------------------||----------------|
||o---------------------o||----------------|
||-----------------------||----------------|
||-----------------------||------------10--|
||o---------2-5-5-3-3S6-o||-4----5-5S6--8--|
||--0-0-0-0-0-3-3-1-1S4--||-2----5-5S6--8--|
|
|   Gtr II
|   PM----|
|   S S S S E E E E E E  3x Q.   E E E  Q
||-----------------------||----------------|
||o---------------------o||------------13--|
||------------7-7-5-5S8--||----------------|
||------------5-5-3-3S6--||------------10--|
||o---------2-----------o||-4----5-5S6-----|
||--0-0-0-0-0------------||-2----5-5S6-----|


    PM----|
    S S S S E E E E E E  3x Q.   E E E  Q
||-----------------------||-----------------|
||o---------------------o||-----------------|
||-----------------------||-----------------|
||-----------------------||------------10---|
||o---------2-5-5-3-3S6-o||-4----5-5S6--8---|
||--0-0-0-0-0-3-3-1-1S4--||-2----5-5S6--8---|
|
|   PM----|
|   S S S S E E E E E E  3x Q.   E E E  Q
||-----------------------||-----------------|
||o---------------------o||------------13---|
||------------7-7-5-5S8--||-----------------|
||------------5-5-3-3S6--||------------10---|
||o---------2-----------o||-4----5-5S6------|
||--0-0-0-0-0------------||-2----5-5S6------|


    Q=117
                                2/4
    Gtr I
     |-3--| |-3-| |----3----|    |-3-| |-3-|
     E E  Q E E E E E E  E +E    E E E E E E     4x
||-----------------------------|-----------------||
||o-/0-0-/3-3-3-3-3-3---/2-(2)-|-2-2-2-2-2-2----o||
||--/4-4-/4-4-4-4-4-4-3-/3-(3)-|-3-3-3-3-3-3-----||
||-----------------------------|-----------------||
||o----------------------------|----------------o||
||-----------------------------|-----------------||
|
|   Gtr II
|    |-3--| |-3-| |----3----|    |-3-| |-3-|
|    E E  Q E E E E E E  E +E    E E E E E E     4x
||--/0-0-/3-0-3-0-3-----/2-(2)-|-0-2-0-2-0-2-----||
||o-----------------5-4--------|----------------o||
||-----------------------------|-----------------||
||-----------------------------|-----------------||
||o----------------------------|----------------o||
||-----------------------------|-----------------||


    Q=135
   6/4
       |-3-|        |---3---|                 |-3-|          |-3-|
    E. E E Q Q  +E  E E     Q.   +E  +S    E. E E Q Q    +E  E E Q.  E +S     4x
||---------------------------------------|------------------------------------||
||o----9-9-9-8--(8)-9-9-----9----(9)-(9)-|----7-7-7-6----(6)-----------------o||
||--0--0-0-0-0--(0)-0-0-----0----(0)-(0)-|----6-6-6-5----(5)-6-6-6---5-(5)----||
||--0------------------------------------|------------------------------------||
||o--------------------------------------|-------------------4-4-4---3-(3)---o||
||---------------------------------------|------------------------------------||
|
|   W                   +Q     Q           H.         H.                      4x
||---------------------------------------|------------------------------------||
||o--------------------------------------|-----------------------------------o||
||---------------------------------------|------------------------------------||
||--5-------------------(5)----7---------|-8----------3-----------------------||
||o-5-------------------(5)----7---------|-8----------3----------------------o||
||--3-------------------(3)----5---------|-6----------1-----------------------||


    Q=130
   4/4
    Gtrs I, II
    S S S S S S S S S S S +S  S +S  E    7x
||----------------------------------0----||
||o---------------------------------0---o||
||----------------------------------0----||
||--5-5-5-5-5-5-6-6-6-6-3-(3)-3-(3)------||
||o-------------------------------------o||
||--3-3-3-3-3-3-4-4-4-4-1-(1)-1-(1)------||


  S S S S S S S S S S S +S  S +S  E
|--------------------------------------*|
|--------------------------------------*|
|--------------------------------------*|
|-5-5-5-5-5-5-6-6-6-6-3-(3)-3-(3)------*|
|--------------------------------------*|
|-3-3-3-3-3-3-4-4-4-4-1-(1)-1-(1)------*|

Tablature Legend
----------------
 h   - hammer-on
 p   - pull-off
 b   - bend
 pb  - pre-bend
 r   - bend release (if no number after the r, then release immediately)
 /\  - slide into or out of (from/to "nowhere")
 s   - legato slide
 S   - shift slide
  - natural harmonic
[n]  - artificial harmonic
n(n) - tapped harmonic
 ~   - vibrato
 tr  - trill
 T   - tap
 TP  - trem. picking
 PM  - palm muting
\n/  - tremolo bar dip; n = amount to dip
 \n  - tremolo bar down
 n/  - tremolo bar up
/n\  - tremolo bar inverted dip
 =   - hold bend; also acts as connecting device for hammers/pulls
 <>  - volume swell (louder/softer)
 x   - on rhythm slash represents muted slash
 o   - on rhythm slash represents single note slash

Misc Legend
-----------
 |  - bar
||  - double bar
||o - repeat start
o|| - repeat end
*|  - double bar (ending)
 :  - bar (freetime)
 $  - Segno
 &  - Coda

**





Comments


Popular Immolation tabs & chords
Burn With Jesus Tabs
Challenge The Storm Tabs
Close To A World Below Tabs
Here In After Tabs
No Jesus, No Beast Tabs
Of Martyrs And Men Tabs
Sinful Nature Tabs
Stench Of High Heaven Tabs
Those Left Behind Tabs
Unholy Cult Tabs


Song lyrics



↑ Back to top | Tablatures and chords are parodies/interpretations of the original songs. You may use it for private study, scholarship, research or language learning purposes only
© 2014 AZChords.com Contact us | Privacy policy | DMCA | Add/correct tabs | Request tabs | Top 50 tabs