>
 >
Close To A World Below

Close To A World Below Guitar Tabs

Immolation - Close To A World Below chords, tabs, tablatures, lyrics

Guitar lessons | Add/correct | Request | Top 50 tabs Artists:  A B C D E F G H I J K L M N O P Q R S T U V W X Y Z 0-9

Close To A World Below Guitar Tabs – Immolation

CD, Sheet music, Poster

Do you like Close To A World Below? Share with your friends now
Tabs

   --- IMMOLATION  --- 
                           "Close To A World Below" 
                   

                            TABULATURE LEGEND: 
                   " - tremolo             h - hammer on            
                   ~ - vibrato             \ - slide down 
                   p - pull off            / - slide down 
                  tr - trill               ^ - pinch harmonics      
                   = - sustained note      b - bend string          
                p.m. - palm muting         t - tapping 

TUNING: C [C, F, Bb, eb, g, c] 

[Intro 1 (x2)] 
||---------0"....-0"........-|---------------------------|| 
||o--------5"....-6"........-|--------------------------o|| 
||---------------------------|---------------------------|| 
||--2=====-------------------|-2=====--------------------|| 
||o-2=====-------------------|-2=====-------------------o|| 
||--0=====-------------------|-0=====--------------------|| 
|                            |                            | 
||---------------------------|--------0"....-0"........--|| 
||o--------------------------|--------5"....-6"........-o|| 
||---------------------------|---------------------------|| 
||--2=======================-|-2=====--------------------|| 
||o-2=======================-|-2=====-------------------o|| 
||--0=======================-|-0=====--------------------|| 

[Intro 2 (x3)] /both guitars/ 
||---------0"....-0"........--|| 
||o--------5"....-6"........-o|| 
||----------------------------|| 
||--2=====--------------------|| 
||o-2=====-------------------o|| 
||--0=====--------------------|| 

[Riff 1 (x5)] 
||---------0"....-0"........--------|| 
||o--------5"....-6"........-------o|| 
||----------------------------------|| 
||--2=====-------------------8--3---|| 
||o-2=====-------------------------o|| 
||--0=====-------------------6--1---|| 

[Riff 2 (x4)] 
||-----------------------|--------------------------------|| 
||o----------------------|-------------------------------o|| 
||-------6----7----10----|-9------------------------------|| 
||--2----4----5-----8----|-7-----9----------------8--3----|| 
||o-2----4----5-----8----|-7-----------------------------o|| 
||--0--------------------|-------7----------------6--1----|| 
|                        |                                 | 
||-----------------------|--------------------------------|| 
||o----------------------|------10/12-13--13--12---------o|| 
||-------6----7----10----|-9------------------------------|| 
||--2----4----5-----8----|-7----------------------8--3----|| 
||o-2----4----5-----8----|-7-----------------------------o|| 
||--0--------------------|------------------------6--1----|| 

[Outro 1a] 
||---------0"....-0"........---[x3]-||--------0"....-0"........---- 
||o--------5"....-6"........-------o||--------5"....-6"...........- 
||----------------------------------||----------------------------- 
||--2=====-------------------8--3---||-2=====---------------------- 
||o-2=====-------------------------o||-2=====---------------------- 
||--0=====-------------------6--1---||-0=====---------------------- 


[Riff 3 (x4)] 
||---------------------------------|| 
||o-------------------------------o|| 
||---------9-9-----9-9-------------|| 
||---------9-9-----9-9-------------|| 
||o-7"....-----7"..----7"..8"....-o|| 
||--4"....-------------------------|| 

[Riff 4 (x4)] 
||-------------------------|| 
||o-----------------------o|| 
||-------------------------|| 
||--------------------5-5--|| 
||o---2---5".........-7-7-o|| 
||--0-0-0-8".........------|| 

[RIFF 3 (x4)] [RIFF 4 (x4)] 

[Riff 5] 
||----------------------[x3]-||------------------------------| 
||o-------------------------o||------------------------------| 
||--------------12-12-12-12--||-------------12-12-12-12=====-| 
||--8-3----------9--9--9--9--||-8-3----------9--9--9--9=====-| 
||o-----------2--7--7--7--7-o||-----------2--7--7--7--7=====-| 
||--6-1-0"...-0--------------||-6-1-0"...-0------------------| 

[Riff 6 (x4)] 
||---------------0"....-0"........--|| 
||o--------------5"....-6"........-o|| 
||----------------------------------|| 
||--6--3--2=====--------------------|| 
||o-------2=====-------------------o|| 
||--6--1--0=====--------------------|| 

[RIFF 3 (x4)] [RIFF 4 (x4)] [RIFF 3 (x4)] [RIFF 4 (x4)] [RIFF 5] 

[Riff 6a (x6)] 
||--------------------------------|-------------------------------|| 
||o-------------------------------|------------------------------o|| 
||--------------------------------|-------------------------------|| 
||--2--------------2--------------|-2-----------------------------|| 
||o-2----------0-0-2----------0-0-|-2----------0-0-----55-5-66-6-o|| 
||----000000-3-2-2---000000-3-2-2-|---000000-3-2-2-3-3------------|| 
      ...... .       ...... .         ...... .     . . .. . .. . 

[Riff 6b] 
|-------------------------------|------------------------------|- 
|-------------------------------|------------------------------|- 
|-------------------------------|------------------------------|- 
|-2--------------2--------------|-2----------------------------|- 
|-2----------0-0-2----------0-0-|-2----------0-0-----55-5-66-6-|- 
|---000000-3-2-2---000000-3-2-2-|---000000-3-2-2-3-3-----------|- 
|   ...... .       ...... .     |   ...... .     . . .. . .. . | 
|---------------------------7/8~|------------------------------|- 
|-5~~~-------5/6~5~~~-----------|-5~~~-------5/6~5~~~~~--------|- 
|-------------------------------|------------------------------|- 
|-------------------------------|------------------------------|- 
|-------------------------------|------------------------------|- 
|-------------------------------|------------------------------|- 

-|-------------------------------|------------------------------| 
-|-------------------------------|------------------------------| 
-|-------------------------------|------------------------------| 
-|-2--------------2--------------|-2----------------------------| 
-|-2----------0-0-2----------0-0-|-2----------0-0-----55-5-66-6-| 
-|---000000-3-2-2---000000-3-2-2-|---000000-3-2-2-3-3-----------| 
 |   ...... .       ...... .     |   ...... .     . . .. . .. . | 
-|-12~~~----12/13~12~~~----12/16~|-12~~~------12/13~--12~~~-----| 
-|-------------------------------|------------------------------| 
-|-------------------------------|------------------------------| 
-|-------------------------------|------------------------------| 
-|-------------------------------|------------------------------| 
-|-------------------------------|------------------------------| 

[Outro 2 (x2)] 
||------------------------|------------------------|| 
||o-----------------------|-----------------------o|| 
||------------------------|------------------------|| 
||------------------------|------------------------|| 
||o---2--6666666644444444-|---2-------------------o|| 
||--0-0-------------------|-0-0--------------------|| 
|                         |                         | 
||------------------------|------------------------|| 
||o-----------------------|-----------------------o|| 
||------------------------|------------------------|| 
||------------------------|------------------------|| 
||o---2-------------------|---2--6666666644444444-o|| 
||--0-0-------------------|-0-0--------------------|| 

[Riff 7 (x6)] 
||------------------------|------------------------|| 
||o-----------------------|-----------------------o|| 
||------------------------|------------------------|| 
||------------------------|------------------------|| 
||o---2--6666666644444444-|---2--6666666644444444-o|| 
||--0-0-------------------|-0-0--------------------|| 

[Riff 8 (x4)] /under solo/ 
||---------------------------|----------------------------------|| 
||o--------------------------|---------------------------------o|| 
||---------------------------|-----------------5-5-5-5----------|| 
||------3----4-4-4-4-3-3-3-3-|-8-8-8-8-7-7-7-7-3-3-3-3-5-5-5-5--|| 
||o-----1-2--2-2-2-2-3-3-3-3-|-6-6-6-6-5-5-5-5-3-3-3-3-3-3-3-3-o|| 
||--0-0-1-0--2-2-2-2-1-1-1-1-|-6-6-6-6-5-5-5-5---------3-3-3-3--|| 
    . . 
  
[Riff 9 (x4)] 
||-------------------------------|| 
||o-----------------------------o|| 
||-----------------------6-------|| 
||-----------------------4-------|| 
||o-2------6------3------4------o|| 
||--0-0000-4-0000-1-0000---0000--|| 
      ....   ....   ....   .... 

[RIFF 7 (x8)] 

[Riff 9 (x4)] 
||------------------|------------------|| 
||o-----------------|-----------------o|| 
||--4-----------3-3-|-4-----------3-3--|| 
||--2----2------1-1-|-2----2------1-1--|| 
||o-2----2------1-1-|-2----2------1-1-o|| 
||----00-0---00-----|---00-0---00------|| 

[INTRO 1] 

[Outro 3] 
|--------0"....-0"........-|--------------------------------| 
|--------5"....-6"........-|--------------------------------| 
|--------------------------|--------------------------------| 
|-2=====-------------------|-2=====-------------------8--3--| 
|-2=====-------------------|-2=====-------------------------| 
|-0=====-------------------|-0=====-------------------6--1--| 
|                          |                                | 
|--------------------------|--------0"....-0"........-------| 
|--------------------------|--------5"....-6"........-------| 
|--------------------------|--------------------------------| 
|-2=======================-|-2=====-------------------8--3--| 
|-2=======================-|-2=====-------------------------| 
|-0=======================-|-0=====-------------------6--1--| 

[Outro 1b] 
||---------0"....-0"........---[x4]-||--------0"....-0"........---- 
||o--------5"....-6"........-------o||--------5"....-6"...........- 
||----------------------------------||----------------------------- 
||--2=====-------------------8--3---||-2=====---------------------- 
||o-2=====-------------------------o||-2=====---------------------- 
||--0=====-------------------6--1---||-0=====---------------------- 

[RIFF 3 (x4)] [RIFF 4 (x4)] [RIFF 3 (x4)] [RIFF 4 (x4)] [RIFF 5] 

[Ending 1 (x2)] 
||-----------------------|--------------------------------|| 
||o----------------------|-------------------------------o|| 
||-------------6----7----|-10----9------------------------|| 
||--8--3--2----4----5----|--8----7----9-------------------|| 
||o-------2----4----5----|--8----7-----------------------o|| 
||--6--1--0--------------|------------7-------------------|| 
|                        |                                 | 
||-----------------------|--------------------------------|| 
||o----------------------|------------10/12~13"-13"-12"--o|| 
||-------------6----7----|-10----9------------------------|| 
||--8--3--2----4----5----|--8----7------------------------|| 
||o-------2----4----5----|--8----7-----------------------o|| 
||--6--1--0--------------|--------------------------------|| 

[Ending 2 (x....fade out~~~) 
||-------------------------|-----------------------|| 
||o------------------------|----------------------o|| 
||---------------6----7----|-10-----9--------------|| 
||---8---3--2----4----5----|--8-----7-----9--------|| 
||o---------2----4----5----|--8-----7-------------o|| 
||---6---1--0--------------|--------------7--------|| 
|                          |                        | 
||--7~---------------------|-7"..---10"-8"-7b8~~---|| 
||o------6--5~-------------|----------------------o|| 
||-------------------------|-----------------------|| 
||-------------------------|-----------------------|| 
||o------------------------|----------------------o|| 
||-------------------------|-----------------------|| 

END OF SONG 





Comments


Popular Immolation tabs & chords
Burn With Jesus Tabs
Christ's Cage Tabs
Harnessing Ruin Tabs
Here In After Tabs
Lost Passion Tabs
No Jesus, No Beast Tabs
Of Martyrs And Men Tabs
Rival The Eminent Tabs
Those Left Behind Tabs
Unholy Cult Tabs


Song lyrics



↑ Back to top | Tablatures and chords are parodies/interpretations of the original songs. You may use it for private study, scholarship, research or language learning purposes only
© 2014 AZChords.com Contact us | Privacy policy | DMCA | Add/correct tabs | Request tabs | Top 50 tabs