» » »

Immolation, Challenge The Storm Tabs (ver.1)

Artists:  A B C D E F G H I J K L M N O P Q R S T U V W X Y Z # 

Challenge The Storm Tabs (ver.1)

Immolation Tabs
 Rating:
4/5 (4 votes)
Challenge The Storm lessons Tabs too difficult? Try these video lessons and learn fast
                                             --- IMMOLATION  --- 
                           "Challenge The Storm" 
                   
                            TABULATURE LEGEND: 
                   " - tremolo             h - hammer on            
                   ~ - vibrato             \ - slide down 
                   p - pull off            / - slide down 
                  tr - trill               ^ - pinch harmonics      
                   = - sustained note      b - bend string          
                p.m. - palm muting         t - tapping 

TUNING: C [C, F, Bb, eb, g, c] 

[Intro] 
|----------------------------------|------------------------------|- 
|----------------------------------|------------------------------|- 
|----------------------------------|------------------------------|- 
|----------------------------------|--------------------------0~--|- 
|-------------------------00000000-|--------------------------6~--|- 
|-55555555555555555555555511111111-|-555555555555555555555555-----|- 
|                                  |                              | 
|----------------------------------|------------------------------|- 
|----------------------------------|------------------------------|- 
|----------------------------------|------------------------------|- 
|----------------------------------|------------------------------|- 
|----------------------------------|------------------------------|- 
|----------------------------------|------------------------------|- 

-|----------------------------------|------------------------------| 
-|----------------------------------|------------------------------| 
-|----------------------------------|------------------------------| 
-|----------------------------------|--------------------------0~--| 
-|-------------------------00000000-|--------------------------6~--| 
-|-55555555555555555555555511111111-|-555555555555555555555555-----| 
 |                                  |                              | 
-|----------------------------------|------------------------------| 
-|----------------------------------|------------------------------| 
-|----------------------------------|------------------------------| 
-|----------------------------------|--------------------------0~--| 
-|-------------------------00000000-|--------------------------6~--| 
-|-55555555555555555555555511111111-|-555555555555555555555555-----| 


[Riff 1 (x2)] 
||-----------------------------------|------------------------------|- 
||o----------------------------------|------------------------------|- 
||-----------------------------------|------------------------------|- 
||-----------------------------------|--------------------------0~--|- 
||o-------------------------00000000-|--------------------------6~--|- 
||--55555555555555555555555511111111-|-555555555555555555555555-----|- 
|                                    |                              | 
||--5~----------------------6~-------|------------------------------|- 
||o----------------------------------|-6~-----------------------5~--|- 
||--2~----------------------3~-------|------------------------------|- 
||-----------------------------------|-3~-----------------------2~--|- 
||o----------------------------------|------------------------------|- 
||-----------------------------------|------------------------------|- 

-|----------------------------------|-------------------------------|| 
-|----------------------------------|------------------------------o|| 
-|----------------------------------|-------------------------------|| 
-|----------------------------------|--------------------------0~---|| 
-|-------------------------00000000-|--------------------------6~--o|| 
-|-55555555555555555555555511111111-|-555555555555555555555555------|| 
 |                                  |                                | 
-|-5~----------------------6~-------|-11~----------------------10~--|| 
-|----------------------------------|------------------------------o|| 
-|-2~----------------------3~-------|-8~-----------------------7~---|| 
-|----------------------------------|-------------------------------|| 
-|----------------------------------|------------------------------o|| 
-|----------------------------------|-------------------------------|| 

[Riff 2 (x4)] /quick/ 
||------------------------|| 
||o----------------------o|| 
||--6---------------------|| 
||--5--2/3------------3---|| 
||o-4--2/3------------3--o|| 
||----------0-0-0-0-0-1---|| 
            . . . . . 

[RIFF 1] [RIFF 2 (x4)] [RIFF 1] [RIFF 2 (x4)] 

[Outro 'clean tone, no distortion'] 
||------------------|------------------|| 
||o-----0-----0---0-|-----0-----0---0-o|| 
||------------------|------------------|| 
||----5---5---------|------------------|| 
||o-4-------7---8---|---9---9---------o|| 
||------------------|-8-------6---5----|| 

[Riff 3a (x2)] 
||--4-------6------7------|-------------------------|| 
||o-4-------6------7------|------------------------o|| 
||--6-------8------9------|-------------------------|| 
||--6-------8------9------|-10-------8------7-------|| 
||o-4---6-6-6--7-7-7--7-7-|-10-------8------7------o|| 
||------------------------|--8---6-6-6--5-5-5--5-5--|| 

[Riff 3b (x2)] 
||---4--------6------7-----|-------------------------|| 
||o--4--------6------7-----|------------------------o|| 
||---6--------8------9-----|-------------------------|| 
||---6--------8------9-----|-10--------8------7------|| 
||o--4---6-6--6-7-7--7-7-7-|-10--------8------7-----o|| 
||-------------------------|--8---6-6--6-5-5--5-5-5--|| 
|                          |                          | 
||--16~~~----18-----19-----|-------------------------|| 
||o------------------------|-20~~~----18-----17-----o|| 
||-------------------------|-------------------------|| 
||-------------------------|-------------------------|| 
||o------------------------|------------------------o|| 
||-------------------------|-------------------------|| 

[Riff 4 (x4)] 
||-------------------|------------------|| 
||o------------------|-----------------o|| 
||-------------------|-----------3------|| 
||--^----------5-----|-------------1-2--|| 
||o-5~-------1---2-3-|-4-------4-----3-o|| 
||-----2-3-5-------4-|---1-2-5----------|| 

[RIFF 3a (x2)] [RIFF 3b (x2)] 

[Riff 5 (x8)] 
||-------------------------------|---------------------------|| 
||o------------------------------|------------------7-10--9-o|| 
||-------------------------------|------------------8-11-10--|| 
||--3------0-0-----5-----0-0-----|-4-----0-0------4-8-11-10--|| 
||o-3------6/7-----5-----6/7-----|-4-----6/7------4-6--9--8-o|| 
||--1-000------000-3-000-----000-|-2-000-----000--2----------|| 
      ...      ...   ...     ...     ...     ... 

[Riff 1 /both guitars/ (x4)] 

[Riff 6 (x2)] 
||-------------------------------------------------|| 
||o-----------------------------------------------o|| 
||-------------------------------------------------|| 
||--5------------55555555--------6666666655553333--|| 
||o-3--2-3-3--4----------5555555------------------o|| 
||-----0-1-1--2------------------------------------|| 

[Riff 7a (x4)]                 [Riff 7b (x4)] 
||--------------------------||-||---------------------------|| 
||o------------------------o||-||o-------------------------o|| 
||--3-----------------------||-||---------------------------|| 
||------5-5--5--9---6-6-----||-||--8---8-8--8---9---9-9-----|| 
||o------------------------o||-||o-----6-6--6-------7-7----o|| 
||--6---3-3--3--7---4-4-----||-||--6------------7-----------|| 

[RIFF 4 (x4)] 

[Ending] 
||-----------------------||-------------------------| 
||o---------------------o||-------------------------| 
||--6--------------------||--6----------------------| 
||--5--2/3------------3--||--5--2/3------------3-3--| 
||o-4--2/3------------3-o||--4--2/3------------3-3--| 
||----------0-0-0-0-0-1--||----------0-0-0-0-0-1-1--| 
            . . . . .                . . . . . . . 

End of song. 
            
Submit corrections

comments powered by Disqus
↑ Back to top | Immolation Tabs for Challenge The Storm. Lyrics for acoustic guitar and electric guitar. Tablatures and chords are parodies/interpretations of the original songs. You may use it for private study, scholarship, research or language learning purposes only