» » »

Let's Talk Turkey Bass tabs (ver.1)

Artists:  A B C D E F G H I J K L M N O P Q R S T U V W X Y Z # 

Let's Talk Turkey Bass tabs (ver.1)

Ima Robot
Rating:
0/5 (0 votes)

Hard to play? Try these video lessons and learn fast.
                -------------------------------------------------------------------------------
-------------------------------------------------------------------------------


Tuning: Standard (GDAE)

Intro/Verse:

G|---------------------------------------------------------------------------|
D|---------------------------------------------------------------------------|
A|---------------22-44-------------------------------------------------------|
E|--00-0-0-0-0-0-------------------------------------------------------------|

Repeat variants of this riff; pay attention to the song for timing.

End intro/verse on:

G|---------------------------------------------------------------------------|
D|---------------------------------------------------------------------------|
A|-------------22-24---------------------------------------------------------|
E|--00-0-0-0-0---4-----------------------------------------------------------|

Chorus:

G|---------------------------------------------------------------------------|
D|-------2--------1---------1------------------------------------------------|
A|---4-4---4--2-2---2-0-2-2---2-0-0---------2--------------------------------|
E|----------------------------------0---0-4----------------------------------|

Chorus 2:

G|---------------------------------------------------------------------------|
D|----------2--------111-----------------------------------------------------|
A|--44444444-22222222---222222222000------2----------------------------------|
E|----------------------------------000004-----------------------------------|

Chorus 3:

G|---------------------------------------------------------------------------|
D|---------------------------------------------------------------------------|
A|----4-4---2-2---4-4----2-2---22-24-----------------------------------------|
E|-------------------------------4-------------------------------------------|

Song Structure:
Intro/Verse x8 (last time, hit ending)
Chorus x2
Intro/Verse x8 (last time, hit ending)
Chorus 2 x2
Chorus 3 x1
Chorus x2
Chorus 2 x2

| /  slide up
| \  slide down
| h  hammer-on
| p  pull-off
| ~  vibrato
| +  harmonic
| x  Mute note
===============================================================================
            
Hard to play? Try these video lessons and learn fast. | Correct




comments powered by Disqus
↑ Back to top | Tablatures and chords are parodies/interpretations of the original songs. You may use it for private study, scholarship, research or language learning purposes only