» » »

Ima Robot, Hello I Love You Tabs (ver.1)

Artists:  A B C D E F G H I J K L M N O P Q R S T U V W X Y Z # 

Hello I Love You Tabs (ver.1)

Ima Robot Tabs
 Rating:
4/5 (4 votes)
Hello I Love You lessons Tabs too difficult? Try these video lessons and learn fast
                This is only the riff, I have no idea what chords he's playing at the chorus!

How it SHOULD be played:

e|-19--15----15-------------------------------------------------------|
B|--------17----17---15---17---15---17-----17---15---17---15---17---15|
G|--------------------------------------------------------------------|
D|--------------------------------------------------------------------|
A|--------------------------------------------------------------------|
E|--------------------------------------------------------------------|


e|-19--15----15-------------------------------------------------------|
B|--------17----17---15---17---15---18-18-18-18-18---17---15----------|
G|-------------------------------------------------------------17-----|
D|--------------------------------------------------------------------|
A|--------------------------------------------------------------------|
E|--------------------------------------------------------------------|




How you CAN play it,
though it's an octave lower and doesn't sound as good:

e|-7---3-------3-----------------------------------------------|
B|---------5------5---3---5---3---5------5---3---5---3---5---3-|
G|-------------------------------------------------------------|
D|-------------------------------------------------------------|
A|-------------------------------------------------------------|
E|-------------------------------------------------------------|


e|-7---3-------3-----------------------------------------------|
B|---------5------5---3---5---3---5---6--6--6--6--6---5---3----|
G|-----------------------------------------------------------5-|
D|-------------------------------------------------------------|
A|-------------------------------------------------------------|
E|-------------------------------------------------------------|



Simple! If you know how the song goes, you can play this. Tis just a little riff...




-Collin B
            
Submit corrections

comments powered by Disqus
↑ Back to top | Ima Robot Tabs for Hello I Love You. Lyrics for acoustic guitar and electric guitar. Tablatures and chords are parodies/interpretations of the original songs. You may use it for private study, scholarship, research or language learning purposes only