>
 >
Dynomite

Dynomite Guitar Tabs

Ima Robot - Dynomite chords, tabs, tablatures, lyrics

Guitar lessons | Add/correct | Request | Top 50 tabs Artists:  A B C D E F G H I J K L M N O P Q R S T U V W X Y Z 0-9

Dynomite Guitar Tabs – Ima Robot

CD, Sheet music, Poster

Do you like Dynomite? Share with your friends now
Bass TabsBass Tabs v2Tabs
Ima Robot - Dynomite
************************************

Hi!
Here is my first tab, i hope you like it, the song sounds
like the real, it is 98% real, thank you....

INTRO
G---------------------------------------------------------|
D---------------------------------------------------------|
A---------------------------------------------------------|
E----0/555--0/555--0/555--0/555---------------------------|

G---------------------------------------------------------|
D---------------------------------------------------------|
A---------------------------------------------------------|
E----0/555--0/555--0/555--0/555---------------------------|


G---------------------------------------------------------|
D---------------------------------------------------------|
A---------------------------------------------------------|
E----10/333--10/333--0/555--0/555-------------------------|

THE GUITAR STARTS
"No, I Wanna Wait For Someone Like You..."
e---------------------------------------------------------|
B---------------------------------------------------------|
G------8--8-8-8---7-7-7-7---------------------------------|
D------8--8-8-8---7-7-7-7---------------------------------|
A----0/6--6-6-6---5-5-5-5---------------------------------|
E---------------------------------------------------------|


e----9-9----9-9---------9-9----9--------------------------|
B--------10----10-----------10---10-----------------------|
G---------------------------------------------------------|
D---------------------------------------------------------| x2
A---------------------------------------------------------|
E---------------------------------------------------------|

e--9-9----9-9---------9-9----9-----7-7----7-7---7-7----7---|
B------10----10-----------10---10/-------8-----8------8--8-|
G----------------------------------------------------------|
D----------------------------------------------------------|
A----------------------------------------------------------|
E----------------------------------------------------------|

e----9-9----9-9---------9-9----9--------------------------|
B--------10----10-----------10---10-----------------------|
G---------------------------------------------------------|
D---------------------------------------------------------|
A---------------------------------------------------------|
E---------------------------------------------------------|

"No, I Wanna Wait For Someone Like You..."
e----------------------------x-x-x-x-x-x-x-x-x-x----------|
B----------------------------x-x-x-x-x-x-x-x-x-x----------|
G------8--8-8-8---7-7-7-7----x-x-x-x-x-x-x-x-x-x----------|
D------8--8-8-8---7-7-7-7----x-x-x-x-x-x-x-x-x-x----------|
A----0/6--6-6-6---5-5-5-5----x-x-x-x-x-x-x-x-x-x----------|
E----------------------------x-x-x-x-x-x-x-x-x-x----------|

"No, I Wanna Wait For Someone Like You, To Make My Life So Dynomite!"
e---------------------------------------------------------|
B---------------------------------------------------------|
G------8--8-8-8---7-7-7-7---------------------------------|
D------8--8-8-8---7-7-7-7--5-5-5-5--7-7-7-7---------------|
A----0/6--6-6-6---5-5-5-5--5-5-5-5--7-7-7-7---------------|
E--------------------------3-3-3-3--5-5-5-5---------------|

e---------------------------------------------------------|
B---------------------------------------------------------|
G---11-----------------7--------6-------------------------|
D---11-x8-----7--------7--------6-x8----------------------|  x 3
A---9---------7-x8-----5-x8-----4-------------------------|
E-------------5-------------------------------------------|

e---------------------------------------------------------|
B---------------------------------------------------------|
G---11--------------------7------------6----------9---10--|
D---11--------7-----------7------------6----------9---10--|
A---9-x8------7-----------5-x16--------4-x12------7---8---|
E-------------5-x8----------------------------------------|

ONLY BASS
G---------------------------------------------------------|
D---------------------------------------------------------|
A---------------------------------------------------------|
E----0/555--0/555--0/555--0/555---------------------------|


e----9-9----9-9-----9-9----9----9-9------------------------|
B--------10----10------10---10------10-10-/12-12-12/-14-15-|
G----------------------------------------------------------|
D----------------------------------------------------------|
A----------------------------------------------------------|
E----------------------------------------------------------|

e--7-7----7-7---7-7----7------9-9-----9--9--9--9--9-----9--|
B------8-----8------8----8-------10---10-10-10-10-10----10-|
G----------------------------------------------------------|
D----------------------------------------------------------|
A----------------------------------------------------------|
E----------------------------------------------------------|

"No, I Wanna Wait For Someone Like You..."
e----------------------------x-x-x-x-x-x-x-x-x-x----------|
B----------------------------x-x-x-x-x-x-x-x-x-x----------|
G------8--8-8-8---7-7-7-7----x-x-x-x-x-x-x-x-x-x----------|
D------8--8-8-8---7-7-7-7----x-x-x-x-x-x-x-x-x-x----------|
A----0/6--6-6-6---5-5-5-5----x-x-x-x-x-x-x-x-x-x----------|
E----------------------------x-x-x-x-x-x-x-x-x-x----------|

"No, I Wanna Wait For Someone Like You, To Make My Life So Dynomite!"
e---------------------------------------------------------|
B---------------------------------------------------------|
G------8--8-8-8---7-7-7-7---------------------------------|
D------8--8-8-8---7-7-7-7--5-5-5-5--7-7-7-7---------------|
A----0/6--6-6-6---5-5-5-5--5-5-5-5--7-7-7-7---------------|
E--------------------------3-3-3-3--5-5-5-5---------------|

e---------------------------------------------------------|
B---------------------------------------------------------|
G---11-----------------7--------6-------------------------|
D---11-x8-----7--------7--------6-x8----------------------|  x 3
A---9---------7-x8-----5-x8-----4-------------------------|
E-------------5-------------------------------------------|

e------------------------------------------------------------|
B------------------------------------------------------------|
G---11-------------------7----------10---------12------13-/0-|
D---11-x8------7---------7----------10---------12-x14--13-/0-|
A---9----------7-x8------5-x16------8-x16------10------11-/0-|
E--------------5---------------------------------------------|

ONLY BASS
G---------------------------------------------------------|
D---------------------------------------------------------|
A---------------------------------------------------------|
E----0/555--0/555-----------------------------------------|

e--9-9------9-9-----------9-9----9-9----------7-7---7-7---|
B-----10------10-------------10-----10-----------8-----8--|
G---------------------------------------------------------|
D---------------------------------------------------------|
A---------------------------------------------------------|
E---------------------------------------------------------|

e--9-9------9-9------9--9--9--9----------------------------|
B-----10-------10----10-10-10-10/--13/-15------------------|
G----------------------------------------------------------|
D----------------------------------------------------------|
A----------------------------------------------------------|
E----1-----------------------------------------------------|

"No, I Wanna Wait For Someone Like You, To Make My Life So Dynomite!"
e---------------------------------------------------------|
B---------------------------------------------------------|
G------8--8-8-8---7-7-7-7---------------------------------|
D------8--8-8-8---7-7-7-7--5-5-5-5--7-7-7-7---------------|
A----0/6--6-6-6---5-5-5-5--5-5-5-5--7-7-7-7---------------|
E--------------------------3-3-3-3--5-5-5-5---------------|

G---11-----------------7--------6-------------------------|
D---11-x8-----7--------7--------6-x8----------------------|
A---9---------7-x8-----5-x8-----4-------------------------|   x 2
E-------------5-------------------------------------------|

G---11-------------------7-----------6----------9---11/-0-|
D---11---------7---------7-----------6-x12------9---11/-0-|
A---9-x8-------7---------5-x16-------4----------7---9/--0-|
E--------------5x8----------------------------------------|


If you have any comment or question, please try to do the tab by yourself ok?

                     :::: " __ThE_SiMiOnKy´_S__ "  ::::


   Thank you!





Comments


Popular Ima Robot tabs & chords
Dynomite Bass Tabs
Dynomite 1 Bass Tabs
Let's Talk Turkey Bass Tabs
Alive 1 Chords
Greenback Boogie Chords
Hello I Love You Tabs
Alive Ukulele
Love Is A Boombox Ukulele
Lovers In Captivity Ukulele
Scream Ukulele


Song lyrics



↑ Back to top | Tablatures and chords are parodies/interpretations of the original songs. You may use it for private study, scholarship, research or language learning purposes only
© 2014 AZChords.com Contact us | Privacy policy | DMCA | Add/correct tabs | Request tabs | Top 50 tabs