>
 >
Alive

Alive Guitar Tabs

Ima Robot - Alive chords, tabs, tablatures, lyrics

Guitar lessons | Add/correct | Request | Top 50 tabs Artists:  A B C D E F G H I J K L M N O P Q R S T U V W X Y Z 0-9

Alive Guitar Tabs – Ima Robot

CD, Sheet music, Poster

Do you like Alive? Share with your friends now
ChordsChords v2TabsUkulele
----------------------------------------------------------------------------
----------------------------------------------------------------------------

Tuning: Standard - EADGBE

Intro (0:00)
e|---------------------------|
B|---------------------------|
G|-2---------------2---------|
D|-2-(x64)-2-------2-(x16)---| (x1)
A|-0-------2-(x16)-0---------|
E|---------0-----------------|

Verse (0:23)
e|--------------------------------|
B|--------------------------------|
G|-2---------------6-2-2-22222222-|
D|-2-(x64)-2-------6-2-2-22222222-| (x1)
A|-0-------2-(x16)-4-0-0-00000000-|
E|---------0----------------------|

Chorus (0:38)
e|---------------------------------------|
B|---------------------------------------|
G|----------66666666-77777777------------|
D|-77777777-66666666-77777777-4444-2222--| (x2)
A|-77777777-44444444-55555555-4444-2222--|
E|-55555555-------------------2222-0000--|

Post Chorus (0:53)
e|---------|
B|---------|
G|-4-------|
D|-4-(x16)-| (x1)
A|-2-------|
E|---------|

Verse (0:58)
e|--------12~-10~-9~--------------------|
B|-------------------12~-10~-8~---------|
G|-2----------------------------11~-9~--|
D|-2-(x36)------------------------------|
A|-0------------------------------------|
E|--------------------------------------|

Pre Chorus (1:13)
e|--------------------------------------------------------|
B|--------------------------------------------------------|
G|--------------------------------------------------------|
D|-77777777-55555555-44444444-22222222-77777777-22222222--| 
A|-77777777-55555555-44444444-22222222-77777777-22222222--|
E|-55555555-33333333-22222222-00000000-55555555-00000000--|

e|-----------------------|
B|-----------------------|
G|-6-2-2-22222222--------|
D|-6-2-2-22222222--------|
A|-4-0-0-00000000--------|
E|-----------------------|

Chorus (1:28)
e|---------------------------------------|
B|---------------------------------------|
G|----------66666666-77777777------------|
D|-77777777-66666666-77777777-4444-2222--|
A|-77777777-44444444-55555555-4444-2222--|
E|-55555555-------------------2222-0000--|

e|----------------------------------------|
B|----------------------------------------|
G|----------66666666-77777777-------------|
D|-77777777-66666666-77777777-4-------2-2-|
A|-77777777-44444444-55555555-4-(x12)-2-2-|
E|-55555555-------------------2-------0-0-|

Bridge (1:45)
e|-------------------------------------------|
B|-------------------------------------------|
G|-----666-----------------------------------|
D|-7-7-666-5-55555555-5-5-444/77777777-------|
A|-7-7-444-5-55555555-5-5-444/77777777-------|
E|-5-5-----3-33333333-3-3-222/55555555-------|

second time, guitar two plays... (1:53)
e|-------------------------------------|
B|-------------------------------------|
G|-----666-----------------------------|
D|-7-7-----5-5555555-5-5-444-7-7777777-|
A|-------------------------------------|
E|-------------------------------------|

Bridge (2:00)
e|-------------------------------------------------------|
B|---------------------------10--10--10-9--9--9--9--9--9-|
G|---6--6--6-7--7--7-9--9--9-----------------------------|
D|-7---7--7----7--7----7--7-----7---7-----7--7-7---7--7--|
A|-------------------------------------------------------|
E|-------------------------------------------------------|

(2:12)
e|------------|
B|------------|
G|-6-2-2-2-2--|
D|-6-2-2-2-2--|
A|-4-0-0-0-0--|
E|------------|

Chorus (2:16)
e|---------------------------------------|
B|---------------------------------------|
G|----------66666666-77777777------------|
D|-77777777-66666666-77777777-4444-2222--| (x4)
A|-77777777-44444444-55555555-4444-2222--|
E|-55555555-------------------2222-0000--|

Solo (2:46)
e|--------------------------------------|
B|-----------33333333-3-33-222-5-3-2-22-|
G|-2-22-000-----------------------------|
D|----------4---------------------------|
A|--------------------------------------|
E|--------------------------------------|

e|---------------------------------|
B|-----------33333333--3~--2~------|
G|-2-22-000--------------------2~--|
D|----------4----------------------|
A|---------------------------------|
E|---------------------------------|

| /  slide up
| \  slide down
| h  hammer-on
| p  pull-off
| ~  vibrato
| +  harmonic
| x  Mute note
========================================================================





Comments


Popular Ima Robot tabs & chords
Dynomite Bass Tabs
Dynomite 1 Bass Tabs
Paint The Town Red Chords
Scream Chords
Disconnect Tabs
Alive Ukulele
Greenback Boogie Ukulele
Love Is A Boombox Ukulele
Lovers In Captivity Ukulele
Scream Ukulele


Song lyrics



↑ Back to top | Tablatures and chords are parodies/interpretations of the original songs. You may use it for private study, scholarship, research or language learning purposes only
© 2014 AZChords.com Contact us | Privacy policy | DMCA | Add/correct tabs | Request tabs | Top 50 tabs