» » »

12 = 3 (Here Come The Doctors) Bass tabs (ver.1)

Artists:  A B C D E F G H I J K L M N O P Q R S T U V W X Y Z # 

12 = 3 (Here Come The Doctors) Bass tabs (ver.1)

Ima Robot
Rating:
0/5 (0 votes)

Hard to play? Try these video lessons and learn fast.
                -------------------------------------------------------------------------------
	            12=3 (Here Come the Doctors) - Ima Robot
-------------------------------------------------------------------------------


Tuning: Standard

Intro:

G|---------------------------------------------------------------------------|
D|---------------------------------------------------------------------------|
A|-------6-6--6-6--6-6--6-6---6-6---6-6---6-6---6-6--------------------------|
E|---------------------------------------------------------------------------|

Verse:

G|---------------------------------------------------------------------------|
D|--------------------------------------------------------8------------------|
A|---5h6-5h6-5h6-5h6-5h6-5h6-8----5h6-5h6-5h6-5h6-5h6-5h6--------------------|
E|---------------------------------------------------------------------------|

Bridge:

G|------------3------------2-------------------------------------------------|
D|---------3------------2----------------------------------------------------|
A|---1--5---------0--4-------------------------------------------------------|
E|---------------------------------------------------------------------------|


Chorus 1:

G|---------------------------------------------------------------------------|
D|--------------------------------------------------------------------6------|
A|---------------------3333333366666666----------------3333333366666h8-6\----|
E|----44444444666666666----------------4444444466666666----------------------|

G|---------------------------------------------------------------------------|
D|---------------------------------------------------------------------------|
A|---------------------333333336665656-8---0---8-7---0-7---------------------|
E|----44444444466666666------------------------------------------------------|

Chorus 2:

G|---------------------------------------------------------------------------|
D|------------------------------------------------1h3------------------------|
A|------------3--3------6--3-----------3--3----3-----------------------------|
E|---4--4\---------------------4--4\-----------------------------------------|

G|---------------------------------------------------------------------------|
D|---------------------------------------------------------------------------|
A|--------------------33333333366363\----------------------------------------|
E|---44444444466666666------------------1----4-----6-------------------------|

Solo:

G|-------------------------------------------------------------------3-------|
D|--1--111--111--11110--------------------------------1-111-111-113p1--------|
A|--------------------31-111-111-111h3---------------------------------------|
E|--------------------------------------4-444-444431-------------------------|

Breakdown:

G|------------------------------------------------------------------3--------|
D|--1-1-1-1-1-0-------------------------------------1-1-1-1-1-1-3p1----------|
A|--------------3-1-1-1-1-1-1-1h3--------------------------------------------|
E|---------------------------------4-4-4-4-4-4-4431--------------------------|

Song Structure:
Intro
Verse
Bridge
Intro
Chorus 1
Intro
Verse
Bridge
Intro
Chorus 2
Chorus 1
Solo x4
Breakdown
Intro

| /  slide up
| \  slide down
| h  hammer-on
| p  pull-off
| ~  vibrato
| +  harmonic
| x  Mute note
===============================================================================
            
Hard to play? Try these video lessons and learn fast. | Correct




comments powered by Disqus
↑ Back to top | Tablatures and chords are parodies/interpretations of the original songs. You may use it for private study, scholarship, research or language learning purposes only