>
 >
Walang Misteryo

Walang Misteryo Guitar Tabs

Imago - Walang Misteryo chords, tabs, tablatures, lyrics

Guitar lessons | Add/correct | Request | Top 50 tabs Artists:  A B C D E F G H I J K L M N O P Q R S T U V W X Y Z 0-9

Walang Misteryo Guitar Tabs – Imago

CD, Sheet music, Poster

Do you like Walang Misteryo? Share with your friends now
Bass TabsChordsTabsUkulele
                    "WALANG MISTERYO" BY: IMAGO


      NOTE: HI! AGAIN TO MS.AIA DE LEON OF IMAGO FOR BEING SO
      KIND AT THAT NIGHT,,SO YOU INSPIRED ME TO DO THIS TAB...MWUAAH!!! 


{you can use my intro and adlib version either 1 or 2}
intro: (use thin chorus) 
version 1
e|---------------  -----------------|
B|---------------  -----------------|
G|---------------  -----------------|
D|---6----4-6-5--  -----6---4-6-5---|
A|-4----6--------  -4-4---6---------|
E|---------------  -----------------|

e|---------------  -----------------|
B|---------------  -----------------|
G|---------------  -----------------|
D|---6----4-6-5--  -----6---4-7-6---|intro X2
A|-4----6--------  -4-4---6---------|
E|---------------  -----------------|

intro: version 2
         (use thin chorus)
e|-----------------  -----------------|
B|-----------------  -----------------|
G|------0-1--0-1---  --------0-1--0-1-|
D|---2-------------  -----2-----------|
A|-4---------------  -4-4-------------|
E|-----------------  -----------------|
                                           
e|-----------------  --------------------|
B|-----------------  --------------------|
G|------0-1--0-1---  --------0-1--2--1---|
D|---2-------------  -----2--------------| intro X2
A|-4---------------  -4-4----------------|
E|-----------------  --------------------|

natutunan mong gumalaw... (palm mute) X2
e|---------------------------------------------------|
B|---------------------------------------------------|
G|------6------------------------4-------------------|
D|------6-----------6------------4------------4------|
A|-4-4----4---------6-------2-2----2----------4------|
E|-------------4-4----4------------------2-2-----2---|

pre chorus: X2
ang tamis ng bagong awit ng malisya...
e|----------------------------------|
B|----------------------------------|
G|-9-9-9-9--6-6-6-6-----------------|
D|-9-9-9-9--6-6-6-6---6-6-6-6--7-7--|
A|-7-7-7-7--4-4-4-4---6-6-6-6--7-7--|
E|--------------------4-4-4-4--5-5--|
    
(palm mute)
e|------------------------|
B|------------------------|
G|--6-6-X-6-6-X-6-6-X-6-6-|
D|--6-6-X-6-6-X-6-6-X-6-6-|
A|--4-4-X-4-4-X-4-4-X-4-4-|
E|------------------------|

chorus: at pawang di natapos...
version 1
e|---------------  -----------------|
B|---------------  -----------------|
G|---------------  -----------------|
D|---6----4-6-5--  -----6---4-6-5---|
A|-4----6--------  -4-4---6---------|
E|---------------  -----------------|

e|---------------  -----------------|
B|---------------  -----------------|
G|---------------  -----------------|
D|---6----4-6-5--  -----6---4-7-6---|intro X2
A|-4----6--------  -4-4---6---------|
E|---------------  -----------------|

at pag di ka namulat...
e|---------------  -----------------|
B|---------------  -----------------|
G|---------------  -----------------|
D|---6----4-6-5--  -----6---4-6-5---|
A|-4----6--------  -4-4---6---------|
E|---------------  -----------------|

e|---------------  -----------------------------------|
B|---------------  -----------------------------------|
G|---------------  -----------------------------------|
D|---6----4-6-5--  -----6---4-6-5-6-5-6-5-6-5-6-5-6-5-|
A|-4----6--------  -4-4---6---------------------------|
E|---------------  -----------------------------------|

chorus
version 2 
at pawang di natapos...
e|-----------------  -----------------|
B|-----------------  -----------------|
G|------0-1--0-1---  --------0-1--0-1-|
D|---2-------------  -----2-----------|
A|-4---------------  -4-4-------------|
E|-----------------  -----------------|
                                           
e|-----------------  --------------------|
B|-----------------  --------------------|
G|------0-1--0-1---  --------0-1--2--1---|
D|---2-------------  -----2--------------| 
A|-4---------------  -4-4----------------|
E|-----------------  --------------------|

at pag di ka namulat...
e|-----------------  -----------------|
B|-----------------  -----------------|
G|------0-1--0-1---  --------0-1--0-1-|
D|---2-------------  -----2-----------|
A|-4---------------  -4-4-------------|
E|-----------------  -----------------|
                                           
e|-----------------  -----------------------------------------------|
B|-----------------  -----------------------------------------------|
G|------0-1--0-1---  --------0-1--0-1--0-1--0-1--0-1--0-1--0-1--0-1-|
D|---2-------------  -----2-----------------------------------------| 
A|-4---------------  -4-4-------------------------------------------|
E|-----------------  -----------------------------------------------|

adlib:    (alternate as many times)
vesion1
e|----------------  -------------------|
B|----------------  -------------------|
G|----------------  -------------------|
D|-7-6---4-6--7-6-  -8-7----4-6--7-6---|
A|-----6----------  ------6------------|
E|----------------  -------------------|

version 2  (alternate as many times)  
e|-------------------  --------------------|
B|-------------------  --------------------|
G|--6-5--0-1--2--1---  --6--4--0-1--2--1---|
D|-------------------  --------------------|
A|-------------------  --------------------|
E|-------------------  --------------------|

outro:
palm mute)
e|------------------------|
B|------------------------|
G|--6-6-X-6-6-X-6-6-X-6-6-|
D|--6-6-X-6-6-X-6-6-X-6-6-|
A|--4-4-X-4-4-X-4-4-X-4-4-|
E|------------------------|
      -follow the sequence-

Walang Misteryo:

verse:
natutunan mong gumalaw
sa bibig ng laro mo natikman
ang tamis ng bagong awit ng malisya
pakana mo ng sumaway

chorus:
at pawang di natapos misteryong bumalot sa sangkatauhan
at pag di ka namulat may ibang hahagip sa kamalayan mo

verse2:
nabalitaan momg may ibang daan
nagduda ka't inisip wag nalang kaya
  <<<>>>





Comments


Popular Imago tabs & chords
Taralets Bass Tabs
Ewan 1 Chords
Rain Song Chords
Show Me A Smile Chords
Under Repair 1 Chords
Tara Lets Tabs
Taralets 1 Tabs
Idlip Ukulele
Spolarium Ukulele
Sundo Ukulele


Song lyrics



↑ Back to top | Tablatures and chords are parodies/interpretations of the original songs. You may use it for private study, scholarship, research or language learning purposes only
© 2014 AZChords.com Contact us | Privacy policy | DMCA | Add/correct tabs | Request tabs | Top 50 tabs