» » »

Imago, Reset Tabs (ver.2)

Artists:  A B C D E F G H I J K L M N O P Q R S T U V W X Y Z # 

Reset Tabs (ver.2)

Imago Tabs
 Rating:
4/5 (4 votes)
Reset lessons Tabs too difficult? Try these video lessons and learn fast
                RESET by Imago

INTRO:

e|----------------------|
B|----------------------|
G|-7-7-7--11-11-11/12-3-| 4x
D|-7-7-7--11-11-11/12-3-|
A|-5-5-5---9--9--9/10-1-|
E|----------------------|

VERSE:

e|---------------------------------------|
B|---------------------------------------|
G|-7-7-7-7-7-7-7-7--10-10-10-10--9-9-9-9-|
D|-7-7-7-7-7-7-7-7--10-10-10-10--9-9-9-9-|
A|-5-5-5-5-5-5-5-5---8--8--8--8--7-7-7-7-|
E|---------------------------------------|

e|----------------------|
B|----------------------|
G|-7-7-7--11-11-11/12-3-| 2x
D|-7-7-7--11-11-11/12-3-|
A|-5-5-5---9--9--9/10-1-|
E|----------------------|

REFRAIN:

e|----------------------------------|
B|----------------------------------|
G|----------------------------------|
D|-7-7-7-7-7-7-7-7--5-5-5-5-5-5-5-5-|
A|-7-7-7-7-7-7-7-7--5-5-5-5-5-5-5-5-|
E|-5-5-5-5-5-5-5-5--3-3-3-3-3-3-3-3-|

CHORUS:

e|----------------------|
B|----------------------|
G|-11-11--7-7--9-9------| 8x yata
D|-11-11--7-7--9-9--9-9-|
A|--9--9--5-5--7-7--9-9-|
E|------------------7-7-|


NITRAM
01-06-08
05:44 AM
            
Submit corrections

comments powered by Disqus
↑ Back to top | Imago Tabs for Reset. Lyrics for acoustic guitar and electric guitar. Tablatures and chords are parodies/interpretations of the original songs. You may use it for private study, scholarship, research or language learning purposes only