>
 >
Pacino

Pacino Guitar Tabs

Illscarlett - Pacino chords, tabs, tablatures, lyrics

Guitar lessons | Add/correct | Request | Top 50 tabs Artists:  A B C D E F G H I J K L M N O P Q R S T U V W X Y Z 0-9

Pacino Guitar Tabs – Illscarlett

CD, Sheet music, Poster

Do you like Pacino? Share with your friends now
Tabs
So I did the guitar pro tab but I was getting a few complaints that there was no regular 
so I decided to turn my guitar pro one into this.
It may be a bit erratic and such but all the parts are there
P.S. this is intended to be the version off the “EPdemic” CD but it works pretty much 
the version on “All Day With It” as well.
Hope you can follow it. Enjoy!


-------------------------------------------------------------------------------
                             Pacino – illScarlett
-------------------------------------------------------------------------------


Tuning: EADGBE


Intro x2

E||--4----------------|--2----------------|--2----------------|
B||--4----------------|--2----------------|--4----------------|
G||--4----------------|--3----------------|--4----------------|
D||--6----------------|--4----------------|--4----------------|
A||--6----------------|--4----------------|--2----------------|
E||--4----------------|--2----------------|-------------------|

|--0----------------|--2----------------|--2----------------|
|--0----------------|--4----------------|--2----------------|
|--1----------------|--4----------------|--3----------------|
|--2----------------|--4----------------|--4----------------|
|--2----------------|--2----------------|--4----------------|
|--0----------------|-------------------|--2----------------|


Verse: Part 1 and 2 played together x2


Part 1

|--------4-----------4-----|--------2-----------------|
|--------4-----------4-----|--------2--------------4--|
|--------4-----------4-----|--------3-----------3--4--|
|--------6--------x--6-----|--x--x--4--------x--4--4--|
|--------6--------x--6-----|--x--x--4--------x--4--2--|
|--------4--------x--4-----|--x--x--2--------x--2-----|


-------------------------|--------------------------|-------0-----------0-----|
-------4-----------4-----|--------4-----------4-----|-------0-----------0-----|
-------4-----------4-----|--------4-----------4--1--|-------1-----------1-----|
-------4--------x--4-----|--x--x--4--------x--4--2--|-------2-----x--x--2-----|
-------2--------x--2-----|--x--x--2--------x--2--2--|-------2-----x--x--2-----|
----------------x--------|--x--x-----------x-----0--|-------0-----x--x--0-----|


--------------------------|-------2-----------2-----|--------2-----------2-----|
--------4-----------4-----|-------2-----------2-----|--------2-----------2-----|
--------4-----------4--3--|-------3-----------3-----|--------3-----------3--4--|
--x--x--4-----x--x--4--4--|-------4-----x--x--4-----|--x--x--4-----x--x--4--6--|
--x--x--2-----x--x--2--4--|-------4-----x--x--4-----|--x--x--4-----x--x--4--6--|
--x--x--------x--x-----2--|-------2-----x--x--2-----|--x--x--2-----x--x--2--4--|
Part 2 (lightly in the background with PM)


--------------------------|--------------------------|
--------------------------|--------------------------|
--------------------------|--------------------------|
--------------------6-----|-----------------------4--|
--------6-----6-----------|--------4-----4-----4-----|
--4--4-----4--------------|-----2-----2-----2--------|


--------------------------|--------------------------|
--------------------------|--------------------------|
--------------------4-----|--------------------------|
--------4-----4-----------|--------4-----4-----------|
--2--2-----2--------------|-----2-----2-----2--4--6--|
--------------------------|--------------------------|

--------------------------|--------------------------|
--------------------------|--------------------------|
--------------------9-----|--------------------8-----|
--------9-----9-----------|--------9-----9-----------|
--7--7-----7--------------|-----6-----6--------------|
--------------------------|--------------------------|


--------------------------|--------------------------|
--------------------------|--------------------------|
--------------------------|-----------------------3--|
--------4-----4-----------|--------4-----4-----4-----|
--4--4-----4--------4-----|-----4-----4-----4--------|
--------------------------|--------------------------|

Prechorus


--2---------0---------|-------------------|--2---------0---------|
--2--------------0----|-------------------|--2--------------0----|
--3----3--------------|-------------------|--3----3--------------|
--4-------------------|-------------------|--4-------------------|
--4-------------------|-------------------|--4-------------------|
--2-------------------|-------------------|--2-------------------|


Chorus 1: Part 1 and 2 are played together

Chorus Part 1

|--0--0--0--0--x--0--0--0--|--2--2--2--2--x--2--2--2--|
|--0--0--0--0--x--0--0--0--|--2--2--2--2--x--2--2--2--|
|--1--1--1--1--x--1--1--1--|--3--3--3--3--x--3--3--3--|
|--2--2--2--2--x--2--2--2--|--4--4--4--4--x--4--4--4--|
|--2--2--2--2--x--2--2--2--|--4--4--4--4--x--4--4--4--|
|--0--0--0--0--x--0--0--0--|--2--2--2--2--x--2--2--2--|

--4--4--4--4--x--4--4--4--|--2--2--2--2--x--2--2--2--|
--4--4--4--4--x--4--4--4--|--2--2--2--2--x--2--2--2--|
--4--4--4--4--x--4--4--4--|--3--3--3--3--x--3--3--3--|
--6--6--6--6--x--6--6--6--|--4--4--4--4--x--4--4--4--|
--6--6--6--6--x--6--6--6--|--4--4--4--4--x--4--4--4--|
--4--4--4--4--x--4--4--4--|--2--2--2--2--x--2--2--2--|

--0--0--0--0--x--0--0--0--|--2--2--2--2--x--2--2--2--|
--0--0--0--0--x--0--0--0--|--2--2--2--2--x--2--2--2--|
--1--1--1--1--x--1--1--1--|--3--3--3--3--x--3--3--3--|
--2--2--2--2--x--2--2--2--|--4--4--4--4--x--4--4--4--|
--2--2--2--2--x--2--2--2--|--4--4--4--4--x--4--4--4--|
--0--0--0--0--x--0--0--0--|--2--2--2--2--x--2--2--2--|

Chorus Part 2

------------12-----12--11------|-------------12-----12--11------|
-----9--12-----------------12--|------9--12-----------------12--|
--9----------------------------|--11----------------------------|
-------------------------------|--------------------------------|
-------------------------------|--------------------------------|
-------------------------------|--------------------------------|

------------12-----12--11------|-------------12-----12--11------|
--9--9--12-----------------12--|------9--12-----------------12--|
-------------------------------|--11----------------------------|
-------------------------------|--------------------------------|
-------------------------------|--------------------------------|
-------------------------------|--------------------------------|


------------12-----12--11------|-------------12-----12--11------|
-----9--12-----------------12--|------9--12-----------------12--|
--9----------------------------|--11----------------------------|
-------------------------------|--------------------------------|
-------------------------------|--------------------------------|
-------------------------------|--------------------------------|


Verse 2:

Guitar 1 plays verse 1 part x2
Guitar 2 plays what’s below (solo part)

--------------------------|--------------------------|
--------------------------|--------------------------|
--------------------------|--------------------------|
--------------------6-----|-----------------------4--|
--------6-----6-----------|--------4-----4-----4-----|
--4--4-----4--------------|-----2-----2-----2--------|


--------------------------|--------------------------|
--------------------------|--------------------------|
--------------------4-----|--------------------------|
--------4-----4-----------|--------4-----4-----------|
--2--2-----2--------------|-----2-----2-----2--4--6--|
--------------------------|--------------------------|

--------------------------|--------------------------|
--------------------------|--------------------------|
--------------------9-----|--------------------8-----|
--------9-----9-----------|--------9-----9-----------|
--7--7-----7--------------|-----6-----6--------------|
--------------------------|--------------------------|

--------------------------|------------------------------------|
--------------------------|------------------------------------|
--------------------------|------------------------------15----|
--------4-----4-----------|------------------------16----------|
--4--4-----4--------4-----|----------13h--14h--16--------------|
--------------------------|--14--16----------------------------|


--------------------------|--------------------------|--------------------|
--------------------------|--------------------------|--------------------|
--16--------16--18--16----|--15--------15--16--18----|--16----------------|
--------------------------|--------------------------|--------------------|
--------------------------|--------------------------|--------------------|
--------------------------|--------------------------|--------------------|

-------------------------|-------------------------|----------------------|
-------------------16----|--17------------17s--19--|--16------------17----|
--L--------16--18--------|-------------------------|----------------------|
-------------------------|-------------------------|----------------------|
-------------------------|-------------------------|----------------------|
-------------------------|-------------------------|----------------------|


----------------------|--------------------|
--14--------12--------|--11----------------|
----------------------|--------------------|
----------------------|--------------------|
----------------------|--------------------|
----------------------|--------------------|

Then the intro part is played again x1
Then the second verse and prechorus is played the same way as the first time

Chorus 2:

Guitar 1 plays (below)

|--0--0--0--0--x--0--0--0--|
|--0--0--0--0--x--0--0--0--|
|--1--1--1--1--x--1--1--1--|
|--2--2--2--2--x--2--2--2--|
|--2--2--2--2--x--2--2--2--|
|--0--0--0--0--x--0--0--0--|

--2--2--2--2--x--2--2--2--|--4--4--4--4--x--4--4--4--|
--2--2--2--2--x--2--2--2--|--4--4--4--4--x--4--4--4--|
--3--3--3--3--x--3--3--3--|--4--4--4--4--x--4--4--4--|
--4--4--4--4--x--4--4--4--|--6--6--6--6--x--6--6--6--|
--4--4--4--4--x--4--4--4--|--6--6--6--6--x--6--6--6--|
--2--2--2--2--x--2--2--2--|--4--4--4--4--x--4--4--4--|

--2--2--2--2--x--2--2--2--|--0--0--0--0--x--0--0--0--|
--2--2--2--2--x--2--2--2--|--0--0--0--0--x--0--0--0--|
--3--3--3--3--x--3--3--3--|--1--1--1--1--x--1--1--1--|
--4--4--4--4--x--4--4--4--|--2--2--2--2--x--2--2--2--|
--4--4--4--4--x--4--4--4--|--2--2--2--2--x--2--2--2--|
--2--2--2--2--x--2--2--2--|--0--0--0--0--x--0--0--0--|

--2--2--2--2--x--2--2--2--|--4--4--4--4--4--4--4--4--|
--2--2--2--2--x--2--2--2--|--4--4--4--4--4--4--4--4--|
--3--3--3--3--x--3--3--3--|--4--4--4--4--4--4--4--4--|
--4--4--4--4--x--4--4--4--|--6--6--6--6--6--6--6--6--|
--4--4--4--4--x--4--4--4--|--6--6--6--6--6--6--6--6--|
--2--2--2--2--x--2--2--2--|--4--4--4--4--4--4--4--4--|

--4--4--4--4--4--4--4--4--|--0--0--0--0--x--0--0--0--|
--4--4--4--4--4--4--4--4--|--0--0--0--0--x--0--0--0--|
--4--4--4--4--4--4--4--4--|--1--1--1--1--x--1--1--1--|
--6--6--6--6--6--6--6--6--|--2--2--2--2--x--2--2--2--|
--6--6--6--6--6--6--6--6--|--2--2--2--2--x--2--2--2--|
--4--4--4--4--4--4--4--4--|--0--0--0--0--x--0--0--0--|


--2--2--2--2--x--2--2--2--|--------------------|--4--------2--------|
--2--2--2--2--x--2--2--2--|--4--------4--------|--4--------2--------|
--3--3--3--3--x--3--3--3--|--4--------4--------|--4--------3--------|
--4--4--4--4--x--4--4--4--|--4--------4--------|--6--------4--------|
--4--4--4--4--x--4--4--4--|--2--------1--------|--6--------4--------|
--2--2--2--2--x--2--2--2--|--------------------|--4--------2--------|


--0--0--0--0--x--0--0--0--|--2--2--2--2--x--2--2--2--|
--0--0--0--0--x--0--0--0--|--2--2--2--2--x--2--2--2--|
--1--1--1--1--x--1--1--1--|--3--3--3--3--x--3--3--3--|
--2--2--2--2--x--2--2--2--|--4--4--4--4--x--4--4--4--|
--2--2--2--2--x--2--2--2--|--4--4--4--4--x--4--4--4--|
--0--0--0--0--x--0--0--0--|--2--2--2--2--x--2--2--2--|


Guitar 2 Plays (below) while guitar 1 plays its part

|------------12-----12--11------|
|-----9--12-----------------12--|
|--9----------------------------|
|-------------------------------|
|-------------------------------|
|-------------------------------|

-------------12-----12--11------|------------12-----12--11------|
------9--12-----------------12--|--9--9--12-----------------12--|
--11----------------------------|-------------------------------|
--------------------------------|-------------------------------|
--------------------------------|-------------------------------|
--------------------------------|-------------------------------|

-------------12-----12--11------|------------12-----12--11------|
------9--12-----------------12--|-----9--12-----------------12--|
--11----------------------------|--9----------------------------|
--------------------------------|-------------------------------|
--------------------------------|-------------------------------|
--------------------------------|-------------------------------|


-------------12-----12--11------|--12--11------11--12--11------11--|
------9--12-----------------12--|----------12--------------12------|
--11----------------------------|----------------------------------|
--------------------------------|----------------------------------|
--------------------------------|----------------------------------|
--------------------------------|----------------------------------|


--12--11------11--12--11------11--|------------12-----12--11------|
----------12--------------12------|-----9--12-----------------12--|
----------------------------------|--9----------------------------|
----------------------------------|-------------------------------|
----------------------------------|-------------------------------|
----------------------------------|-------------------------------|


-------------12-----12--11------|--11--------9--------|--7--------9--------|
------9--12-----------------12--|---------------------|--------------------|
--11----------------------------|---------------------|--------------------|
--------------------------------|---------------------|--------------------|
--------------------------------|---------------------|--------------------|
--------------------------------|---------------------|--------------------|


------------12-----12--11------|-------------12-----12--11------|
-----9--12-----------------12--|------9--12-----------------12--|
--9----------------------------|--11----------------------------|
-------------------------------|--------------------------------|
-------------------------------|--------------------------------|
-------------------------------|--------------------------------|


Interlude:

Guitar 1 plays x4

|-------6--6-------6----|
|-------7--7-------7----|
|-------8----------8----|
|--x----8-----x----8----|
|--x----6-----x----6----|
|--x----------x---------|


-------7---------7--7--|-------7---------7----|-------7---------7----|
-------9---------9--7--|-------7---------7----|-------7---------7----|
-------9---------9--8--|-------8---------8----|-------8---------8----|
--x----9----x----9--9--|-------9----x----9----|--x----9----x----9----|
--x----7----x----7--9--|-------9----x----9----|--x----9----x----9----|
--x---------x-------7--|-------7----x----7----|--x----7----x----7----|


While guitar 2 plays (below)

--11--------12----11----|------------------9----|--11----------------|
------------------------|--12--------12---------|--------------------|
------------------------|-----------------------|--------------------|
------------------------|-----------------------|--------------------|
------------------------|-----------------------|--------------------|
------------------------|-----------------------|--------------------|

-------------------|--11--------12----11----|------------------------|
-------------------|------------------------|--12--------/11----9----|
-------------------|------------------------|------------------------|
-------------------|------------------------|------------------------|
-------------------|------------------------|------------------------|
-------------------|------------------------|------------------------|

-------------------|------------------6--|--------------------4--|
--7----------------|---------------------|-------7---------7-----|
-------------------|---------------------|------------8----------|
-------------------|---------------------|-----------------------|
-------------------|---------------------|-----------------------|
-------------------|---------------------|-----------------------|

--------------------7--|---------------------|------------------6--|
-------5---------5-----|-------7-------------|---------------------|
------------4----------|------------8--------|---------------------|
-----------------------|---------------------|---------------------|
-----------------------|---------------------|---------------------|
-----------------------|---------------------|---------------------|

-
--------------------4--|----------------------|
-------7---------7-----|-------5---------5----|
------------8----------|------------4---------|
-----------------------|----------------------|
-----------------------|----------------------|
-----------------------|----------------------|


Prechorus

Break:

|----------------------------|
|----------------------------|
|----------------------------|
|----------------------------|
|--2-----2-----2-----2-------|
|-----0-----0-----0-----0----|


--------------------------|--------------------------|
--------------------------|--------------------------|
--------------------------|--------------------------|
--------------------------|--------------------------|
--4-----4-----4-----4-----|--6-----6-----6-----6-----|
-----2-----2-----2-----2--|-----4-----4-----4-----4--|


--------------------------|--------------------------|
--------------------------|--------------------------|
--------------------------|--------------------------|
--------------------------|--------------------------|
--4-----4-----4-----4-----|--2-----2-----2-----2-----|
-----2-----2-----2-----2--|-----0-----0-----0-----0--|


--------------------------|--4----------------|
--------------------------|--4----------------|
--------------------------|--4----------------|
--------------------------|--6----------------|
--4-----4-----4-----4-----|--6----------------|
-----2-----2-----2-----2--|--4----------------|


Chorus 3:

Guitar 1 plays

--0--0--0--0--x--0--0--0--|--2--2--2--2--x--2--2--2--|--------------------|
--0--0--0--0--x--0--0--0--|--2--2--2--2--x--2--2--2--|--4--------4--------|
--1--1--1--1--x--1--1--1--|--3--3--3--3--x--3--3--3--|--4--------4--------|
--2--2--2--2--x--2--2--2--|--4--4--4--4--x--4--4--4--|--4--------4--------|
--2--2--2--2--x--2--2--2--|--4--4--4--4--x--4--4--4--|--2--------1--------|
--0--0--0--0--x--0--0--0--|--2--2--2--2--x--2--2--2--|--------------------|

--4--------2--------|--0--0--0--0--x--0--0--0--|--2--2--2--2--x--2--2--2--|
--4--------2--------|--0--0--0--0--x--0--0--0--|--2--2--2--2--x--2--2--2--|
--4--------3--------|--1--1--1--1--x--1--1--1--|--3--3--3--3--x--3--3--3--|
--6--------4--------|--2--2--2--2--x--2--2--2--|--4--4--4--4--x--4--4--4--|
--6--------4--------|--2--2--2--2--x--2--2--2--|--4--4--4--4--x--4--4--4--|
--4--------2--------|--0--0--0--0--x--0--0--0--|--2--2--2--2--x--2--2--2--|


--4--4--4--4--4--4--4--4--|--4--4--4--4--4--4--4--4--|
--4--4--4--4--4--4--4--4--|--4--4--4--4--4--4--4--4--|
--4--4--4--4--4--4--4--4--|--4--4--4--4--4--4--4--4--|
--6--6--6--6--6--6--6--6--|--6--6--6--6--6--6--6--6--|
--6--6--6--6--6--6--6--6--|--6--6--6--6--6--6--6--6--|
--4--4--4--4--4--4--4--4--|--4--4--4--4--4--4--4--4--|


--0--0--0--0--x--0--0--0--|--2--2--2--2--x--2--2--2--|
--0--0--0--0--x--0--0--0--|--2--2--2--2--x--2--2--2--|
--1--1--1--1--x--1--1--1--|--3--3--3--3--x--3--3--3--|
--2--2--2--2--x--2--2--2--|--4--4--4--4--x--4--4--4--|
--2--2--2--2--x--2--2--2--|--4--4--4--4--x--4--4--4--|
--0--0--0--0--x--0--0--0--|--2--2--2--2--x--2--2--2--|


--4--4--4--4--4--4--4--4--|--4--4--4--4--4--4--4--4--|
--4--4--4--4--4--4--4--4--|--4--4--4--4--4--4--4--4--|
--4--4--4--4--4--4--4--4--|--4--4--4--4--4--4--4--4--|
--6--6--6--6--6--6--6--6--|--6--6--6--6--6--6--6--6--|
--6--6--6--6--6--6--6--6--|--6--6--6--6--6--6--6--6--|
--4--4--4--4--4--4--4--4--|--4--4--4--4--4--4--4--4--|


                             ^                   ^
--0--0--0--0--x--0--0--0--|--2----------------|--4----------------||
--0--0--0--0--x--0--0--0--|--2----------------|--4----------------||
--1--1--1--1--x--1--1--1--|--3----------------|--4----------------||
--2--2--2--2--x--2--2--2--|--4----------------|--6----------------||
--2--2--2--2--x--2--2--2--|--4----------------|--6----------------||
--0--0--0--0--x--0--0--0--|--2----------------|--4----------------||

While guitar 2 plays

|------------12-----12--11------|
|-----9--12-----------------12--|
|--9----------------------------|
|-------------------------------|
|-------------------------------|
|-------------------------------|


-------------12-----12--11------|--11--------9--------|--7--------9--------|
------9--12-----------------12--|---------------------|--------------------|
--11----------------------------|---------------------|--------------------|
--------------------------------|---------------------|--------------------|
--------------------------------|---------------------|--------------------|
--------------------------------|---------------------|--------------------|


------------12-----12--11------|-------------12-----12--11------|
-----9--12-----------------12--|------9--12-----------------12--|
--9----------------------------|--11----------------------------|
-------------------------------|--------------------------------|
-------------------------------|--------------------------------|
-------------------------------|--------------------------------|


--12--11------11--12--11------11--|--12--11------11--12--11------11--|
----------12--------------12------|----------12--------------12------|
----------------------------------|----------------------------------|
----------------------------------|----------------------------------|
----------------------------------|----------------------------------|
----------------------------------|----------------------------------|


------------12-----12--11------|-------------12-----12--11------|
-----9--12-----------------12--|------9--12-----------------12--|
--9----------------------------|--11----------------------------|
-------------------------------|--------------------------------|
-------------------------------|--------------------------------|
-------------------------------|--------------------------------|


--12--11------11--12--11------11--|--12--11------11--12--11------11--|
----------12--------------12------|----------12--------------12------|
----------------------------------|----------------------------------|
----------------------------------|----------------------------------|
----------------------------------|----------------------------------|
----------------------------------|----------------------------------|


------------12-----12--11------|-----|-----||
-----9--12-----------------12--|-----|-----||
--9----------------------------|-----|-----||
-------------------------------|-----|-----||
-------------------------------|-----|-----||
-------------------------------|-----|-----||
| /  slide up
| \  slide down
| h  hammer-on
| p  pull-off
| ~  vibrato
| +  harmonic
| x  Mute note
===============================================================================





Comments


Popular Illscarlett tabs & chords
Nothing Special Chords
One-A Chords
Babylon Song Intro Tabs
Clearer Now Tabs
Danse Macabre Tabs
N.T.F Tabs
Nothing Special 1 Tabs
Nothing Special Ukulele
Onea Ukulele
Paradise Burning Ukulele


Song lyrics



↑ Back to top | Tablatures and chords are parodies/interpretations of the original songs. You may use it for private study, scholarship, research or language learning purposes only
© 2014 AZChords.com Contact us | Privacy policy | DMCA | Add/correct tabs | Request tabs | Top 50 tabs