» » »

N.T.F Tabs (ver.2)

Artists:  A B C D E F G H I J K L M N O P Q R S T U V W X Y Z # 

N.T.F Tabs (ver.2)

Illscarlett
Rating:
5/5 (3 votes)

Hard to play? Try these video lessons and learn fast.
                Ill Scarlett – NTF Solo

The rest of the tab is up here a few times but I hadn't seen the solo yet. There are 
3 versions of this song out there, the newest off All Day With It, acoustic of EPdemic, and 
origional recording. They all have minor differences and I got bored so I added them in.

Probably has a few mistakes though... that sucks...

oh well... Enjoy!!!

  All 3
|---------------/11-8--------------8----------------8----------|
|------------8-9------11------9h11---11-9-11---9-11---11-9-----|
|------5h6h8-------------8h10------------------------------10--|
|--------------------------------------------------------------|
|--------------------------------------------------------------|
|-x\\\---------------------------------------------------------|

  Acoustic and origional
|-------8--------------------------|
|--9-11---11-9-----9-9-9-9-9-11-8--|
|---------------10-----------------|
|----------------------------------|
|----------------------------------|
|----------------------------------|
| All day with it
|-----------------------------------|
|-----------------9-999-9-9-9-11-8--|
|------------8-10-------------------|
|-----8-/-10------------------------|
|--11-------------------------------|
|-----------------------------------|


  Acoustic
|-16p15p13--------------------------------------------|
|----------16-13-16p14p13----13----13-----------------|
|-------------------------15----15----15-13h15p13p12--|
|-----------------------------------------------------|
|-----------------------------------------------------|
|-----------------------------------------------------|
| Origional
|-16p15p13--------------------------------------------|
|----------16-13-16p14p13----13-13--------------------|
|-------------------------15----15b17-15-13-15-13-12--|
|-----------------------------------------------------|
|-----------------------------------------------------|
|-----------------------------------------------------|
| All Day With It
|-16p15p13--------------------------------------------|
|----------16-13-16p14p13----13------13---------------|
|-------------------------15----15b17 r15-13h15p13p12-|
|-----------------------------------------------------|
|-----------------------------------------------------|
|-----------------------------------------------------|


  Acoustic
|-----------------------------------------------------------------|
|-----------------------------------------------------------------|
|-------12h13h15-15b17r15--13-12-13--13-15-13-12-13--13-15-13-12--|
|-13h15-----------------------------------------------------------|
|-----------------------------------------------------------------|
|-----------------------------------------------------------------|
| Origional
|--------------------------------------------------------------------------|
|--------------------------------------------------------------------------|
|-------12h13h15-15b17--13-12-13p12h13p12h13--13-15-13-12-13--13-15-13-12--|
|-13h15--------------------------------------------------------------------|
|--------------------------------------------------------------------------|
|--------------------------------------------------------------------------|
| All Day With It
|-----------------------------------------------------------------|
|-----------------------------------------------------------------|
|-------12h13h15-15b17r15--13-12-13--13b15r13-12-13--13b15r13-12--|
|-13h15-----------------------------------------------------------|
|-----------------------------------------------------------------|
|-----------------------------------------------------------------|

  Acoustic
|---------------------|
|---------------------|
|-----12h13h15-15-13--|
|--13-----------------|
|---------------------|
|---------------------|
| Origional
|--------------------------------------|
|--------------------------------------|
|-----12h13h15-15-13-13-13-13-13-13-13-|
|--13----------------------------------|
|--------------------------------------|
|--------------------------------------|
| All Day With It
|--------------------16-|
|-----------------16----|
|-----15b17r15-13-------|
|--13-------------------|
|-----------------------|
|-----------------------|
            
Hard to play? Try these video lessons and learn fast. | Correct




comments powered by Disqus
↑ Back to top | Tablatures and chords are parodies/interpretations of the original songs. You may use it for private study, scholarship, research or language learning purposes only