>
 >
Nothing Special

Nothing Special Guitar Tabs

Illscarlett - Nothing Special chords, tabs, tablatures, lyrics

Guitar lessons | Add/correct | Request | Top 50 tabs Artists:  A B C D E F G H I J K L M N O P Q R S T U V W X Y Z 0-9

Nothing Special Guitar Tabs – Illscarlett

CD, Sheet music, Poster

Do you like Nothing Special? Share with your friends now
ChordsChords v2Chords v3TabsTabs v2Ukulele
.:Nothing Special:.


Standard Tuning

Legend:
.----------------
.pm - palm mute  .
./ - slide up    .
.\ - slide down  .
.x - mute note   .
-----------------


Intro

e------------------------|------------------------|------------------------|------------------------|
B--7--7--x--7--7--7--x---|-7--7--7--x--7--7--7--x-|-7--7--7--x--7--7--7--x-|-7--7--7--x--7--7--7--x-|
G--8--8--x--8--8--8--x---|-8--8--8--x--8--8--8--x-|-8--8--8--x--8--8--8--x-|-8--8--8--x--8--8--8--x-|
D--8--8--x--8--8--8--x---|-8--8--8--x--8--8--8--x-|-8--8--8--x--8--8--8--x-|-8--8--8--x--8--8--8--x-|
A--6--6--x--6--6--6--x---|-6--6--6--x--6--6--6--x-|-6--6--6--x--6--6--6--x-|-6--6--6--x--6--6--6--x-|
E------------------------|------------------------|------------------------|------------------------|


e------------------------|------------------------|------------------------|------------------------|
B-7--7--7--x--7--7--7--x-|-7--7--7--x--7--7--7--x-|------------------------|------------------------|
G-8--8--8--x--8--8--8--x-|-8--8--8--x--8--8--8--x-|-7--7--7--x--7--7--7--x-|-7--7--7--x--7--7--7--x-|
D-8--8--8--x--8--8--8--x-|-8--8--8--x--8--8--8--x-|-8--8--8--x--8--8--8--x-|-8--8--8--x--8--8--8--x-|
A-6--6--6--x--6--6--6--x-|-6--6--6--x--6--6--6--x-|-8--8--8--x--8--8--8--x-|-8--8--8--x--8--8--8--x-|
E------------------------|------------------------|-6--6--6--x--6--6--6--x-|-6--6--6--x--6--6--6--x-|


e------------------------|------------------------|------------------------|------------------------|
B------------------------|------------------------|------------------------|------------------------|
G-8--8--8--x--8--8--8--x-|-8--8--8--x--8--8--8--x-|------------------------|------------------------|
D-9--9--9--x--9--9--9--x-|-9--9--9--x--9--9--9--x-|-4--4--4--4--4--4--4--4-|-8--8--8--8--8--8--8--8-|
A-9--9--9--x--9--9--9--x-|-9--9--9--x--9--9--9--x-|-4--4--4--4--4--4--4--4-|-8--8--8--8--8--8--8--8-|
E-7--7--7--x--7--7--7--x-|-7--7--7--x--7--7--7--x-|-2--2--2--2--2--2--2--2-|-6--6--6--6--6--6--6--6-|


e------------------------|------------------------|------------------------|------------------------|
B-7--7--7--x--7--7--7--x-|-7--7--7--x--7--7--7--x-|------------------------|------------------------|
G-8--8--8--x--8--8--8--x-|-8--8--8--x--8--8--8--x-|-7--7--7--x--7--7--7--x-|-7--7--7--x--7--7--7--x-|
D-8--8--8--x--8--8--8--x-|-8--8--8--x--8--8--8--x-|-8--8--8--x--8--8--8--x-|-8--8--8--x--8--8--8--x-|
A-6--6--6--x--6--6--6--x-|-6--6--6--x--6--6--6--x-|-8--8--8--x--8--8--8--x-|-8--8--8--x--8--8--8--x-|
E------------------------|------------------------|-6--6--6--x--6--6--6--x-|-6--6--6--x--6--6--6--x-|


e------------------------|------------------------|------------------------|------------------------|
B------------------------|------------------------|------------------------|------------------------|
G-8--8--8--x--8--8--8--x-|-8--8--8--x--8--8--8--x-|------------------------|------------------------|
D-9--9--9--x--9--9--9--x-|-9--9--9--x--9--9--9--x-|-4--4--4--4--4--4--4--4-|-8--8--8--8--8--8--8--8-|
A-9--9--9--x--9--9--9--x-|-9--9--9--x--9--9--9--x-|-4--4--4--4--4--4--4--4-|-8--8--8--8--8--8--8--8-|
E-7--7--7--x--7--7--7--x-|-7--7--7--x--7--7--7--x-|-2--2--2--2--2--2--2--2-|-6--6--6--6--6--6--6--6-|


Pre-Verse (With Wah Pedal)

e------------------------|------------------------|------------------------|------------------------|
B-11-9------------9------|-11-9------------9------|-------------9----------|--11--------9-----------|
G-----11-10-11-10--11-10-|-----11-10-11-10--11-10-|-11-11-11-11---11-------|-------11--------10-----|
D------------------------|------------------------|-----------------11-----|------------------------|
A------------------------|------------------------|------------------------|------------------------|
E------------------------|------------------------|------------------------|------------------------|


e------------------------|------------------------|------------------------|------------------------|
B-11-9------------9------|-11-9------------9------|-------------9----------|--11--------9-----------|
G-----11-10-11-10--11-10-|-----11-10-11-10--11-10-|-11-11-11-11---11-------|-------11--------10-----|
D------------------------|------------------------|-----------------11-----|------------------------|
A------------------------|------------------------|------------------------|------------------------|
E------------------------|------------------------|------------------------|------------------------|


e------------------------|
B------------------------|
G-8----10----11----8-----|
D-8----10----11----8-----|
A-6-----8-----9----6-----|
E------------------------|


Verse

(not exact strumming pattern)

e------------------------|------------------------|------------------------|------------------------|
B------------------------|------------------------|------------------------|------------------------|
G------------------------|-8--8-8-8-8-8-8-8-8-8-8-|------------------------|-6-6-6-6-6-6-6-6-6-6-6-6|
D-9--9-9-9-9-9-9-9-9-9-9-|-8--8-8-8-8-8-8-8-8-8-8-|-4-4-4-4-4-4-4-4-4-4-4-4|-6-6-6-6-6-6-6-6-6-6-6-6|
A-9--9-9-9-9-9-9-9-9-9-9-|-6--6-6-6-6-6-6-6-6-6-6-|-4-4-4-4-4-4-4-4-4-4-4-4|-4-4-4-4-4-4-4-4-4-4-4-4|
E-7--7-7-7-7-7-7-7-7-7-7-|-6--6-6-6-6-6-6-6-6-6-6-|-2-2-2-2-2-2-2-2-2-2-2-2|-4-4-4-4-4-4-4-4-4-4-4-4|
     ........pm..........     .........pm........  .............pm.......... ............pm.........


e------------------------|------------------------|------------------------|------------------------|
B------------------------|------------------------|------------------------|------------------------|
G------------------------|-8--8-8-8-8-8-8-8-8-8-8-|------------------------|-6-6-6-6-6-6-6-6-6-6-6-6|
D-9--9-9-9-9-9-9-9-9-9-9-|-8--8-8-8-8-8-8-8-8-8-8-|-4-4-4-4-4-4-4-4-4-4-4-4|-6-6-6-6-6-6-6-6-6-6-6-6|
A-9--9-9-9-9-9-9-9-9-9-9-|-6--6-6-6-6-6-6-6-6-6-6-|-4-4-4-4-4-4-4-4-4-4-4-4|-4-4-4-4-4-4-4-4-4-4-4-4|
E-7--7-7-7-7-7-7-7-7-7-7-|-6--6-6-6-6-6-6-6-6-6-6-|-2-2-2-2-2-2-2-2-2-2-2-2|-4-4-4-4-4-4-4-4-4-4-4-4|
     ........pm..........     .........pm........  .............pm.......... ............pm.........


e--------7---------------|
B---------------7--------|
G--4---------------------|(Let Ring)
D------------------------|
A------------------------|
E------------------------|



Chorus

e------------------------|------------------------|------------------------|------------------------|
B-7--7--7--x--7--7--7--x-|-7--7--7--x--7--7--7--x-|------------------------|------------------------|
G-8--8--8--x--8--8--8--x-|-8--8--8--x--8--8--8--x-|-7--7--7--x--7--7--7--x-|-7--7--7--x--7--7--7--x-|
D-8--8--8--x--8--8--8--x-|-8--8--8--x--8--8--8--x-|-8--8--8--x--8--8--8--x-|-8--8--8--x--8--8--8--x-|
A-6--6--6--x--6--6--6--x-|-6--6--6--x--6--6--6--x-|-8--8--8--x--8--8--8--x-|-8--8--8--x--8--8--8--x-|
E------------------------|------------------------|-6--6--6--x--6--6--6--x-|-6--6--6--x--6--6--6--x-|


e------------------------|------------------------|------------------------|------------------------|
B------------------------|------------------------|------------------------|------------------------|
G-8--8--8--x--8--8--8--x-|-8--8--8--x--8--8--8--x-|------------------------|------------------------|
D-9--9--9--x--9--9--9--x-|-9--9--9--x--9--9--9--x-|-4--4--4--4--4--4--4--4-|-8--8--8--8--8--8--8--8-|
A-9--9--9--x--9--9--9--x-|-9--9--9--x--9--9--9--x-|-4--4--4--4--4--4--4--4-|-8--8--8--8--8--8--8--8-|
E-7--7--7--x--7--7--7--x-|-7--7--7--x--7--7--7--x-|-2--2--2--2--2--2--2--2-|-6--6--6--6--6--6--6--6-|


e------------------------|------------------------|------------------------|------------------------|
B-7--7--7--x--7--7--7--x-|-7--7--7--x--7--7--7--x-|------------------------|------------------------|
G-8--8--8--x--8--8--8--x-|-8--8--8--x--8--8--8--x-|-7--7--7--x--7--7--7--x-|-7--7--7--x--7--7--7--x-|
D-8--8--8--x--8--8--8--x-|-8--8--8--x--8--8--8--x-|-8--8--8--x--8--8--8--x-|-8--8--8--x--8--8--8--x-|
A-6--6--6--x--6--6--6--x-|-6--6--6--x--6--6--6--x-|-8--8--8--x--8--8--8--x-|-8--8--8--x--8--8--8--x-|
E------------------------|------------------------|-6--6--6--x--6--6--6--x-|-6--6--6--x--6--6--6--x-|


e------------------------|------------------------|------------------------|------------------------|
B------------------------|------------------------|------------------------|------------------------|
G-8--8--8--x--8--8--8--x-|-8--8--8--x--8--8--8--x-|------------------------|------------------------|
D-9--9--9--x--9--9--9--x-|-9--9--9--x--9--9--9--x-|-4--4--4--4--4--4--4--4-|-8--8--8--8--8--8--8--8-|
A-9--9--9--x--9--9--9--x-|-9--9--9--x--9--9--9--x-|-4--4--4--4--4--4--4--4-|-8--8--8--8--8--8--8--8-|
E-7--7--7--x--7--7--7--x-|-7--7--7--x--7--7--7--x-|-2--2--2--2--2--2--2--2-|-6--6--6--6--6--6--6--6-|

e------------------------|
B------------------------|
G-8----10----11----8-----|
D-8----10----11----8-----|
A-6-----8-----9----6-----|
E------------------------|


Verse 2

e------------------------|------------------------|------------------------|------------------------|
B------------------------|------------------------|------------------------|------------------------|
G------------------------|-8--8-8-8-8-8-8-8-8-8-8-|------------------------|-6-6-6-6-6-6-6-6-6-6-6-6|
D-9--9-9-9-9-9-9-9-9-9-9-|-8--8-8-8-8-8-8-8-8-8-8-|-4-4-4-4-4-4-4-4-4-4-4-4|-6-6-6-6-6-6-6-6-6-6-6-6|
A-9--9-9-9-9-9-9-9-9-9-9-|-6--6-6-6-6-6-6-6-6-6-6-|-4-4-4-4-4-4-4-4-4-4-4-4|-4-4-4-4-4-4-4-4-4-4-4-4|
E-7--7-7-7-7-7-7-7-7-7-7-|-6--6-6-6-6-6-6-6-6-6-6-|-2-2-2-2-2-2-2-2-2-2-2-2|-4-4-4-4-4-4-4-4-4-4-4-4|
     ........pm..........     .........pm........  .............pm.......... ............pm.........


e------------------------|------------------------|------------------------|------------------------|
B------------------------|------------------------|------------------------|------------------------|
G------------------------|-8--8-8-8-8-8-8-8-8-8-8-|------------------------|-6-6-6-6-6-6-6-6-6-6-6-6|
D-9--9-9-9-9-9-9-9-9-9-9-|-8--8-8-8-8-8-8-8-8-8-8-|-4-4-4-4-4-4-4-4-4-4-4-4|-6-6-6-6-6-6-6-6-6-6-6-6|
A-9--9-9-9-9-9-9-9-9-9-9-|-6--6-6-6-6-6-6-6-6-6-6-|-4-4-4-4-4-4-4-4-4-4-4-4|-4-4-4-4-4-4-4-4-4-4-4-4|
E-7--7-7-7-7-7-7-7-7-7-7-|-6--6-6-6-6-6-6-6-6-6-6-|-2-2-2-2-2-2-2-2-2-2-2-2|-4-4-4-4-4-4-4-4-4-4-4-4|
     ........pm..........     .........pm........  .............pm.......... ............pm.........


e--------7---------------|
B---------------7--------|
G--4---------------------|(Let Ring)
D------------------------|
A------------------------|
E------------------------|



Chorus

e------------------------|------------------------|------------------------|------------------------|
B------------------------|------------------------|------------------------|------------------------|
G-8--8--8--x--8--8--8--x-|-8--8--8--x--8--8--8--x-|------------------------|------------------------|
D-8--8--8--x--8--8--8--x-|-8--8--8--x--8--8--8--x-|-8--8--8--x--8--8--8--x-|-8--8--8--x--8--8--8--x-|
A-6--6--6--x--6--6--6--x-|-6--6--6--x--6--6--6--x-|-8--8--8--x--8--8--8--x-|-8--8--8--x--8--8--8--x-|
E------------------------|------------------------|-6--6--6--x--6--6--6--x-|-6--6--6--x--6--6--6--x-|


e------------------------|------------------------|------------------------|------------------------|
B------------------------|------------------------|------------------------|------------------------|
G------------------------|------------------------|------------------------|------------------------|
D-9--9--9--x--9--9--9--x-|-9--9--9--x--9--9--9--x-|-4--4--4--4--4--4--4--4-|-8--8--8--8--8--8--8--8-|
A-9--9--9--x--9--9--9--x-|-9--9--9--x--9--9--9--x-|-4--4--4--4--4--4--4--4-|-8--8--8--8--8--8--8--8-|
E-7--7--7--x--7--7--7--x-|-7--7--7--x--7--7--7--x-|-2--2--2--2--2--2--2--2-|-6--6--6--6--6--6--6--6-|


e------------------------|------------------------|------------------------|------------------------|
B------------------------|------------------------|------------------------|------------------------|
G-8--8--8--x--8--8--8--x-|-8--8--8--x--8--8--8--x-|------------------------|------------------------|
D-8--8--8--x--8--8--8--x-|-8--8--8--x--8--8--8--x-|-8--8--8--x--8--8--8--x-|-8--8--8--x--8--8--8--x-|
A-6--6--6--x--6--6--6--x-|-6--6--6--x--6--6--6--x-|-8--8--8--x--8--8--8--x-|-8--8--8--x--8--8--8--x-|
E------------------------|------------------------|-6--6--6--x--6--6--6--x-|-6--6--6--x--6--6--6--x-|


e------------------------|------------------------|------------------------|------------------------|
B------------------------|------------------------|------------------------|------------------------|
G------------------------|------------------------|------------------------|------------------------|
D-9--9--9--x--9--9--9--x-|-9--9--9--x--9--9--9--x-|-4--4--4--4--4--4--4--4-|-8--8--8--8--8--8--8--8-|
A-9--9--9--x--9--9--9--x-|-9--9--9--x--9--9--9--x-|-4--4--4--4--4--4--4--4-|-8--8--8--8--8--8--8--8-|
E-7--7--7--x--7--7--7--x-|-7--7--7--x--7--7--7--x-|-2--2--2--2--2--2--2--2-|-6--6--6--6--6--6--6--6-|

Pre-Chorus

Guitar 1 (Rhythm)

e------------------------|------------------------|------------------------|------------------------|
B------------------------|------------------------|------------------------|------------------------|
G------------------------|------------------------|------------------------|-8--8--8--8--6--6--6--6-|
D-9--9--9--9--9--9--9--9-|-4--4--4--4--4--4--4--4-|-8--8--8--8--8--8--8--8-|-8--8--8--8--6--6--6--6-|
A-9--9--9--9--9--9--9--9-|-4--4--4--4--4--4--4--4-|-8--8--8--8--8--8--8--8-|-6--6--6--6--4--4--4--4-|
E-7--7--7--7--7--7--7--7-|-2--2--2--2--2--2--2--2-|-6--6--6--6--6--6--6--6-|------------------------|

e------------------------|------------------------|------------------------|------------------------|
B------------------------|------------------------|------------------------|------------------------|
G------------------------|------------------------|------------------------|------------------------|
D-9--9--9--9--9--9--9--9-|-4--4--4--4--4--4--4--4-|-8--8--8--8--8--8--8--8-|-8--8--8--8--8--8--8--8-|
A-9--9--9--9--9--9--9--9-|-4--4--4--4--4--4--4--4-|-8--8--8--8--8--8--8--8-|-8--8--8--8--8--8--8--8-|
E-7--7--7--7--7--7--7--7-|-2--2--2--2--2--2--2--2-|-6--6--6--6--6--6--6--6-|-6--6--6--6--6--6--6--6-|

e------------------------|
B------------------------|
G------------------------|(Let Ring)
D--8---------------------|
A--8---------------------|
E--6---------------------|


Guitar 2 (Lead)

e------------------------|------------------------|------------------------|------------------------|
B-12-12-12-12-12-12-12-12|-7--7--7--7--7--7--7--7-|-11-11-11-11-11-11-11-11|------------------------|
G-11-11-11-11-11-11-11-11|-6--6--6--6--6--6--6--6-|-10-10-10-10-10-10-10-10|-11-10-8-10--11-10-8-10-|
D-9--9--9--9--9--9--9--9-|-4--4--4--4--4--4--4--4-|-8--8--8--8--8--8--8--8-|------------------------|
A-9--9--9--9--9--9--9--9-|-4--4--4--4--4--4--4--4-|-8--8--8--8--8--8--8--8-|------------------------|
E------------------------|------------------------|------------------------|------------------------|

e------------------------|------------------------|------------------------|------------------------|
B------------------------|------------------------|------------------------|------------------------|
G-11-10-8-10-11-13-11-10-|-11-10-8-10-11-13-11-10-|-11-10-11-10-11-10-11-10|-11-10-11-10-11-10-11-10|
D------------------------|------------------------|------------------------|------------------------|
A------------------------|------------------------|------------------------|------------------------|
E------------------------|------------------------|------------------------|------------------------|

e------------------------|
B------------------------|
G------------------------|(Let Ring)
D--------12--------------|
A------------------------|
E------------------------|




Chorus

e------------------------|------------------------|------------------------|------------------------|
B------------------------|------------------------|------------------------|------------------------|
G-(I'm sick and tired----|-----of everybody)------|------------------------|------------------------|
D------------------------|------------------------|-8--8--8--x--8--8--8--x-|-8--8--8--x--8--8--8--x-|
A------------------------|------------------------|-8--8--8--x--8--8--8--x-|-8--8--8--x--8--8--8--x-|
E------------------------|------------------------|-6--6--6--x--6--6--6--x-|-6--6--6--x--6--6--6--x-|


e------------------------|------------------------|------------------------|------------------------|
B------------------------|------------------------|------------------------|------------------------|
G------------------------|------------------------|------------------------|------------------------|
D-9--9--9--x--9--9--9--x-|-9--9--9--x--9--9--9--x-|-4--4--4--4--4--4--4--4-|-8--8--8--8--8--8--8--8-|
A-9--9--9--x--9--9--9--x-|-9--9--9--x--9--9--9--x-|-4--4--4--4--4--4--4--4-|-8--8--8--8--8--8--8--8-|
E-7--7--7--x--7--7--7--x-|-7--7--7--x--7--7--7--x-|-2--2--2--2--2--2--2--2-|-6--6--6--6--6--6--6--6-|


e------------------------|------------------------|------------------------|------------------------|
B------------------------|------------------------|------------------------|------------------------|
G-8--8--8--x--8--8--8--x-|-8--8--8--x--8--8--8--x-|------------------------|------------------------|
D-8--8--8--x--8--8--8--x-|-8--8--8--x--8--8--8--x-|-8--8--8--x--8--8--8--x-|-8--8--8--x--8--8--8--x-|
A-6--6--6--x--6--6--6--x-|-6--6--6--x--6--6--6--x-|-8--8--8--x--8--8--8--x-|-8--8--8--x--8--8--8--x-|
E------------------------|------------------------|-6--6--6--x--6--6--6--x-|-6--6--6--x--6--6--6--x-|


e------------------------|------------------------|------------------------|------------------------|
B------------------------|------------------------|------------------------|------------------------|
G------------------------|------------------------|------------------------|------------------------|
D-9--9--9--x--9--9--9--x-|-9--9--9--x--9--9--9--x-|-4--4--4--4--4--4--4--4-|-8--8--8--8--8--8--8--8-|
A-9--9--9--x--9--9--9--x-|-9--9--9--x--9--9--9--x-|-4--4--4--4--4--4--4--4-|-8--8--8--8--8--8--8--8-|
E-7--7--7--x--7--7--7--x-|-7--7--7--x--7--7--7--x-|-2--2--2--2--2--2--2--2-|-6--6--6--6--6--6--6--6-|



Outro

(Guitar 1 Rhythm)

e------------------------|------------------------|------------------------|------------------------|
B------------------------|------------------------|------------------------|------------------------|
G-8--8--8--x--8--8--8--x-|-8--8--8--x--8--8--8--x-|------------------------|------------------------|
D-8--8--8--x--8--8--8--x-|-8--8--8--x--8--8--8--x-|-8--8--8--x--8--8--8--x-|-8--8--8--x--8--8--8--x-|
A-6--6--6--x--6--6--6--x-|-6--6--6--x--6--6--6--x-|-8--8--8--x--8--8--8--x-|-8--8--8--x--8--8--8--x-|
E------------------------|------------------------|-6--6--6--x--6--6--6--x-|-6--6--6--x--6--6--6--x-|


e------------------------|------------------------|------------------------|------------------------|
B------------------------|------------------------|------------------------|------------------------|
G------------------------|------------------------|------------------------|------------------------|
D-9--9--9--x--9--9--9--x-|-9--9--9--x--9--9--9--x-|-4--4--4--4--4--4--4--4-|-8--8--8--8--8--8--8--8-|
A-9--9--9--x--9--9--9--x-|-9--9--9--x--9--9--9--x-|-4--4--4--4--4--4--4--4-|-8--8--8--8--8--8--8--8-|
E-7--7--7--x--7--7--7--x-|-7--7--7--x--7--7--7--x-|-2--2--2--2--2--2--2--2-|-6--6--6--6--6--6--6--6-|

e------------------------|------------------------|------------------------|------------------------|
B------------------------|------------------------|------------------------|------------------------|
G-8--8--8--8--8--8--8--8-|------------------------|------------------------|------------------------|
D-8--8--8--8--8--8--8--8-|-8--8--8--8--8--8--8--8-|-4--4--4--4--4--4--4--4-|----4--3--4--6--3-------|
A-6--6--6--6--6--6--6--6-|-8--8--8--8--8--8--8--8-|-4--4--4--4--4--4--4--4-|----4--3--4--6--3-------|
E------------------------|-6--6--6--6--6--6--6--6-|-2--2--2--2--2--2--2--2-|----2--1--2--4--1-------|

e------------------------|
B------------------------|
G----8--10--11--8--------|
D----8--10--11--8--------|
A----6---8---9--6--------|
E------------------------|

(Guitar 2 Lead)

e------------------------|------------------------|------------------------|------------------------|
B---------11-------------|------------------------|----------11------------|------------------------|
G------------------------|---9-----11------10-----|------------------------|---9-----11------10-----|
D------------------------|------------------------|------------------------|------------------------|
A------------------------|------------------------|------------------------|------------------------|
E------------------------|------------------------|------------------------|------------------------|

e------------------------|------------------------|------------------------|------------------------|
B-----------9------------|------------------------|-------11---------------|------9-----------------|
G---11--11---------------|-------11---------------|------------11----------|--------------10--------|
D------------------------|-------------11---------|------------------------|------------------------|
A------------------------|------------------------|------------------------|------------------------|
E------------------------|------------------------|------------------------|------------------------|

e------------------------|------------------------|------------------------|------------------------|
B-11-9------------9------|-11-9------------9------|-11-9-------------------|------------------------|
G------11--10--11---11-10|------11--10--11---11-10|------11--10-11-10-11---|--11--10--11--13--------|
D------------------------|------------------------|--------11--------------|------------------------|
A------------------------|------------------------|------------------------|------------------------|
E------------------------|------------------------|------------------------|------------------------|

e------------------------|
B------------------------|
G------------------------|
D-(Rhythm Guitar Plays)--|
A------------------------|
E------------------------|





Comments


Popular Illscarlett tabs & chords
Nothing Special Chords
Paradise Burning Chords
Sorry Chords
Clearer Now Tabs
Danse Macabre Tabs
N.T.F 1 Tabs
Ntf Tabs
Ntf 2 Tabs
Whos Got It Intro Tabs
My Bed Ukulele


Song lyrics



↑ Back to top | Tablatures and chords are parodies/interpretations of the original songs. You may use it for private study, scholarship, research or language learning purposes only
© 2014 AZChords.com Contact us | Privacy policy | DMCA | Add/correct tabs | Request tabs | Top 50 tabs