» » »

Line Check Bass tabs (ver.1)

Artists:  A B C D E F G H I J K L M N O P Q R S T U V W X Y Z # 

Line Check Bass tabs (ver.1)

Illscarlett
Rating:
0/5 (0 votes)

Hard to play? Try these video lessons and learn fast.
                Band: illScarlett
Bassist: Dan Krowlikowski

There is no bass for the beginning of the song but, the bass can double what the guitar 
until the actual bassline comes in at 0:54.

Guitar (bass can double)
0:12
G|-----------------------------------------------------------|
D|-----------11-11-11--14-14-14------------------------------|  repeat as
A|-11-11-11------------------------11-11-11-11-11-11-11-11-11|  necessary
E|-----------------------------------------------------------|

Bass
0:54
G|--------------------------------------|
D|----6-4-6--------------6-4-6----------| repeat as
A|-4------------------4-------------2---| necessary
E|----------4-4-2-4------------4-44--4-2|

That's it for the song. Hope you enjoy. Please rate. Thank you.
            
Hard to play? Try these video lessons and learn fast. | Correct




comments powered by Disqus
↑ Back to top | Tablatures and chords are parodies/interpretations of the original songs. You may use it for private study, scholarship, research or language learning purposes only