>
 >
With You

With You Guitar Tabs

Ill Nino - With You chords, tabs, tablatures, lyrics

Guitar lessons | Add/correct | Request | Top 50 tabs Artists:  A B C D E F G H I J K L M N O P Q R S T U V W X Y Z 0-9

With You Guitar Tabs – Ill Nino

CD, Sheet music, Poster

Do you like With You? Share with your friends now
ChordsTabsTabs v2Ukulele
-Intro-
Gtr.1
e|---------------------|---------------------------|----------------------|-----------------|
B|---------------------|--------------------6------|----------------------|-----------------|
G|----5-7-8-7-5-5-5-5--|----5-7-8\7-5-7-8-8---8\7--|----------------------|-----------------|
D|--5------------------|--5------------------------|----------------------|-----------------|
A|---------------------|---------------------------|----------------------|-----------------|
E|---------------------|---------------------------|----------------------|-----------------|
Gtr.2  [Cminor]

-Verse 1-
Gtr.1 [Cminor]
Gtr.2 [Cminor]
  There's something in your ways, that makes me wanna stay here for a

Gtr.1
e|---------------------|-------------------------------------------------6-6/8---|
B|------------ 8/9-8b--|-------------------------------------6-9-8---8-9---------|
G|---------------------|---------------------5-8\7-5-7-8\7-8---------------------|
D|---------------------|---------------------------------------------------------|
A|---------------------|---------------------------------------------------------|
E|---------------------|---------------------------------------------------------|
Gtr.2 [A#major]
  Thousand years,   so just cry your fears. Yea

-Verse 2-
Gtr.1
e|-------------------10\8-6-8-10-11-10--------|----------------------------------|
B|--------------------------------------------|----------------------------------|
G|--------------------------------------------|----------------------------------|
D|--------------------------------------------|----------------------------------|
A|--------------------------------------------|----------------------------------|
E|--------------------------------------------|----------------------------------|
Gtr.2 [Cminor]
  I need you everyday                  Inside you I just want to wype

Gtr.1 
e|----------------|--------------|-------------------|----------------------------|
B|---------6------|---------6----|--------------6----|----------------------------|
G|---7/8-8---7----|---7/8-8---7--|--------7/8-8---7--|----7-7-8-5-7----5----------|
D|----------------|--------------|-------------------|---------------8---6-8-5----|
A|----------------|--------------|-------------------|----------------------------|
E|----------------|--------------|-------------------|----------------------------|
Gtr.2 [A#major]
  away          your     fears    So just cry your tears yea
 
-Bridge 1-
Gtr.1 [Cminor]
Gtr.2 [Cminor]
  I   wish   I    was   with    you

-Chorus-
Gtr.1 [D#maj]        [Dmin]        [A#maj]        [Cmin]
Gtr.2 [D#maj]        [Dmin]        [A#maj]        [Cmin]
  If        I         Stay         well than your tears will set you free 

Gtr.1 [D#maj]        [Dmin]        [A#maj]        [Cmin]
Gtr.2 [D#maj]        [Dmin]        [A#maj]        [Cmin]
  If        I         Stay         right here and forever with you   

Gtr.1
e|-------------------|-------------------|------6-6-8-6-------------|-----------------|
B|------------6------|------------6------|--------------9-8-6-8-----|-----------------|
G|--8-7-5-7-8---8-7--|--8-7-5-7-8---8-7--|--------------------------|-----------------|
D|-------------------|-------------------|--------------------------|-----------------|
A|-------------------|-------------------|--------------------------|-----------------|
E|-------------------|-------------------|--------------------------|-----------------|
Gtr.2 [D#maj]                                              [Dmin]
    everything      I         feel            for      you 

Gtr.1
e|---------------------------------------------------------------------------------|
B|---------------------------------------------------------------------------------|
G|-----------------------------1p0---0-1-3--1-0---0--------------------------------|
D|---------------------------------3------------3---3-1-0---1-1--------------------|
A|--------------------------------------------------------3------------------------|
E|---------------------------------------------------------------------------------|
Gtr.2 [A#maj]               [Cmin]
    Is everything I want to stay               with                 you 

Gtr.1 
e|---------------------------------------------------------------------------------|
B|---------------------------------------------------------------------------------|
G|--------------------1p0---0-1-1-1-1-3-0------------------------------------------|
D|------------------------3--------------------------------------------------------|
A|---------------------------------------------------------------------------------|
E|---------------------------------------------------------------------------------|
Gtr.2 [D#maj]   [Dmin]                  [A#maj]       [Cmin]
  If     I    stay                    right here and forever with you 

-Bridge 2-
Gtr.1 
e|--------------|------------------|--------------|----------------------|
B|--------------|---------------6--|--------------|-----------------6----|
G|--5--8p7-5-7--|--5--8p7-5-7-8----|--5--8p7-5-7--|--5--8p7-5-7-8-8---7--|
D|--------------|------------------|--------------|----------------------|
A|--------------|------------------|--------------|----------------------|
E|--------------|------------------|--------------|----------------------|
Gtr.2 [Cminor]
                                  My       eyes!                  My eyes

-Verse 2-
Gtr.1
e|-------------------------6-6-6-6/8-8--|--------15-15-15\13--|---11\10\8-10-11-10--|-----------------------------------|
B|---------------------8-9--------------|---------------------|---------------------|----------------8/9-6-8---6--------|
G|--------------------------------------|---------------------|---------------------|-5-5-7-8-5-7-8----------8---7-8-5--|
D|--------------------------------------|---------------------|---------------------|-----------------------------------|
A|--------------------------------------|---------------------|---------------------|-----------------------------------|
E|--------------------------------------|---------------------|---------------------|-----------------------------------|
Gtr.2 [Cminor]                                      [A#major]
 This is tearing me apart                I wish I could be in your so time       Feel You Again

Gtr. 1 
e|--------------------------------------|--------------------------|--------6--------------------------------|
B|--------------------------------------|--------------8-8-8/9-8---|--8-8-9---9-8/9-6/8---6-----6/8-8-8-9-8--|
G|----------------------------3-3/5-5---|--------------------------|--------------------8---7/8--------------|
D|--------------------------------------|--------------------------|-----------------------------------------|
A|--------------------------------------|--------------------------|-----------------------------------------|
E|--------------------------------------|--------------------------|-----------------------------------------| 
Gtr.2 [Cminor]                                           [A#major]
   Anytime I feel like im to far        Than I will try to remeber all ours   and             your  memories I know...

-Bridge 3-
Gtr.1
e|---------------|-----------------|----------------|----------------|---------------|
B|---------------|-----------------|----------------|----------------|---------------|
G|--3-3-3-3/5-5--|--3/5-5-5-5------|--0-3-5-3-5-----|--3/5-5-5-5-----|---------------|
D|---------------|-----------------|----------------|----------------|-3-1-0---------|
A|---------------|-----------------|----------------|----------------|-------3-3-----|
E|---------------|-----------------|----------------|----------------|---------------|
Gtr.2 [Cminor]                                           
  ...                I wish           I was       in you

-Chorus 2-
Gtr.1 [D#maj]        [Dmin]        [A#maj]        [Cmin]
Gtr.2 [D#maj]        [Dmin]        [A#maj]        [Cmin]
  If        I         Stay         well than your tears will set you free 

Gtr.1 
e|-----------------------------------|
B|-----------------------8-8-8-9-8b--|
G|-----------------------------------|
D|-----------------------------------|
A|-----------------------------------|
E|-----------------------------------|
Gtr.2 [D#maj]        [Dmin]        [A#maj]        [Cmin]
  If         I         Stay         right here than forever with you

Gtr.1 
e|-------------|----------------------------|--------------|--------------------------------------|
B|-------------|----------------------------|------6---6---|------------8-8-8-9-6-8---6-----------|
G|--5-5-5-7-8--|---------7-7-7-8-8-8-7-5-7--|--7-8---8-----|------------------------8----7-8-5-7--|
D|-------------|----------------------------|--------------|--------------------------------------|
A|-------------|----------------------------|--------------|--------------------------------------|
E|-------------|----------------------------|--------------|--------------------------------------|
Gtr.2 [D#maj]               [Dmin]              [A#maj]                [Cmin]
   Everything I feel for you                  Is everything I want to stay with you

Gtr.1
e|------------6-----|-----------------|-------------|-----------------|
B|--9-8-6-8-9---9-8-|-9-8-6-8---6-----|-------------|-----------------|
G|------------------|---------8---7-8-|--7-7-7-8-7--|-----------------|
D|------------------|-----------------|-------------|-----------------|
A|------------------|-----------------|-------------|-----------------|
E|------------------|-----------------|-------------|-----------------|
Gtr.2 [D#maj]        [Dmin]               [A#maj]                  [Cmin]
           If I      stay                right   here      Than forever with you

-Solo-
Gtr.1
e|----------------------------------------------------------------------------------------------|
B|----------------------------------------------------------------------------------------------|
G|--5-8-7-5-7-5-------------------------5-------------------------------------------------------|
D|--------------8-6-5-6-5---5-6-8-8-8-8---8-6-5---5-6-8----------5------------------------------|
A|------------------------8---------------------8----------6-6-8---8-6-6-6-6--------------------|
E|----------------------------------------------------------------------------------------------|

e|--------------------6---------------------------------------------------------6-8-6-------------|
B|--------------6h8h9---9-8-6-8-6-------------------------------6-6-6-8-8-8-9-8-------9-8-6-------|
G|--------5h7h8-------------------8-7---8p7-5-7p5---5-7-8-5-7-8-----------------------------8-7---|
D|--5h6h8-----------------------------------------8-----------------------------------------------|
A|------------------------------------------------------------------------------------------------|
E|------------------------------------------------------------------------------------------------|

e|-----------------------------------------------------------------------------------------------------|
B|--9p8p6-9p8p6-9p8p6-9p8p6--11p9p8-11p9p8-11p9p8-11p9p8--8-9-8-6-8-6---6------------------------------|
G|--------------------------------------------------------------------8---8-5-7---5-5-5-5-5-let-ring---|
D|------------------------------------------------------------------------------8----------------------|
A|-----------------------------------------------------------------------------------------------------|
E|-----------------------------------------------------------------------------------------------------|

Gtr.2 [Cminor]
                  MY EYES!!!

And that's all. This is a wonderful song by hard boys from south!!!
ILL NINO Rules!!!





Comments


Popular Ill Nino tabs & chords
I Am Loco Bass Tabs
Iam Loco Bass Tabs
Violent Saint Bass Tabs
In This Moment Tabs
Lair Tabs
Predisposed Tabs
Unreal Tabs
Unreal 1 Tabs
Liar Ukulele
With You Ukulele


Song lyrics



↑ Back to top | Tablatures and chords are parodies/interpretations of the original songs. You may use it for private study, scholarship, research or language learning purposes only
© 2014 AZChords.com Contact us | Privacy policy | DMCA | Add/correct tabs | Request tabs | Top 50 tabs