» » »

What You Deserve Bass tabs (ver.2)

Artists:  A B C D E F G H I J K L M N O P Q R S T U V W X Y Z # 

What You Deserve Bass tabs (ver.2)

Ill Nino
Rating:
0/5 (0 votes)

Tabs too difficult? Try these video lessons and learn fast.
                Tune:EADG

As always...I tabbed this song by myself!
And I believe that this is the best way to play it...
using the standard tune,of course!
I hope that you'll enjoy it!!!please...rate!!
                              STAY SICK!!!!


              intro:(0:03.5)

G|-----------------------------------|
D|-----------------------------------|
A|--3333X33X3333X33X-----------------|
E|------------------4444X44X1111X11--|   X2

              verse:(0:13)

G|-----------------------|
D|-----------------------|
A|--333X-----------------|
E|-----------444X--111X--|   X4

G|--------------|
D|--------------|
A|--------------|
E|--4_----------|

------------------------------------------------

               chorus:(0:35.5)

G|-------------------------------------|
D|-------------------------------------|
A|--3333333333333333-------------------|
E|------------------44444444\11111111--|

G|------------------------------------|
D|------------------------------------|
A|--3333333333333333------------------|
E|------------------4444444466666666--|

G|-------------------------------------|
D|-------------------------------------|
A|--3333333333333333-------------------|
E|------------------44444444\11111111--|

G|------------------------------------|
D|------------------------------------|
A|------------------------------------|
E|--44444444444444446666666666666666--|

                  interlude:(0:54)

G|-----------------------------------|
D|-----------------------------------|
A|--3333X33X3333X33X-----------------|
E|------------------4444X44X1111X11--|   X2

------------------------------------------------

                 verse:(1:03)

G|-----------------------|
D|-----------------------|
A|--333X-----------------|
E|-----------444X--111X--|   X4

G|--------------|
D|--------------|
A|--------------|
E|--4_----------|

------------------------------------------------

                 chorus:(1:26)

G|-------------------------------------|
D|-------------------------------------|
A|--3333333333333333-------------------|
E|------------------44444444\11111111--|

G|------------------------------------|
D|------------------------------------|
A|--3333333333333333------------------|
E|------------------4444444466666666--|

G|-------------------------------------|
D|-------------------------------------|
A|--3333333333333333-------------------|
E|------------------44444444\11111111--|

G|------------------------------------|
D|------------------------------------|
A|------------------------------------|
E|--44444444444444446666666666666666--|

                 bridge:(1:44)

G|----------1--------------|
D|----0-1-3----------1-----|
A|--3-----------3----------|
E|-------------------------|    X2

G|--------------------|
D|----0-1-3-----------|
A|--3-----------------|
E|----------4_--------|

-----------------------------------------------

                 chorus:(2:09)

G|-------------------------------------|
D|-------------------------------------|
A|--3333333333333333-------------------|
E|------------------44444444\11111111--|

G|------------------------------------|
D|------------------------------------|
A|--3333333333333333------------------|
E|------------------4444444466666666--|

G|-------------------------------------|
D|-------------------------------------|
A|--3333333333333333-------------------|
E|------------------44444444\11111111--|

G|------------------------------------|
D|------------------------------------|
A|------------------------------------|
E|--44444444444444446666666666666666--|

                 outro:(2:27)

G|-----------------------------------|
D|-----------------------------------|
A|--3333X33X3333X33X-----------------|
E|------------------4444X44X1111X11--|    X4

G|----------------|
D|----------------|
A|--3_------------|
E|----------------|

                            END

X=mute note
_=vibrato
            
Tabs too difficult? Try these video lessons and learn fast.




comments powered by Disqus
↑ Back to top | Tablatures and chords are parodies/interpretations of the original songs. You may use it for private study, scholarship, research or language learning purposes only