>
 >
Violent Saint

Violent Saint Guitar Tabs

Ill Nino - Violent Saint chords, tabs, tablatures, lyrics

Guitar lessons | Add/correct | Request | Top 50 tabs Artists:  A B C D E F G H I J K L M N O P Q R S T U V W X Y Z 0-9

Violent Saint Guitar Tabs – Ill Nino

CD, Sheet music, Poster

Do you like Violent Saint? Share with your friends now
Bass TabsTabs
Ill Niņo - Violent Saint
Questions/corrections: webmaster[at]illninoworld[dot]com

TUNED: drop C   (C,G,C,F,A,D)

* = Pinch Harmonic
p = Pull Off
h = Hammer On
. = Palm Mute


INTRO
---------|
---------|
---------|
-<-<-<-<-
-<-<-<-<-
-<-<-<-<-
(pick scrape)


VERSE
guitar 1
-----------------------------------------------------------------|
-----------------------------------------------------------------|
-7---8---7---8---7---8-----------7---8---7---8---7---8---7---8---|
-------------------------0-0-0-0---------------------------------|
-------------------------0-0-0-0---------------------------------|
-------------------------0-0-0-0---------------------------------| 4x
                         . . . .
----------------------|
----------------------|
----------------------|
-0-0-0---0000---0-00--|
-0-0-0---0000---0-00--|
-0-0-0---0000---0-00--|
 . . .   ....   . ..

guitar 2
-----------------------------------------------------------------|
-----------------------------------------------------------------|
-----------------------------------------------------------------|
-0-----------------------0-0-0-0-0---------------<-<-<-<-<-<-<-<-|
-0-----------------------0-0-0-0-0---------------<-<-<-<-<-<-<-<-|
-0-----------------------0-0-0-0-0---------------<-<-<-<-<-<-<-<-| 4x
                         . . . .                  (pick scrape)
----------------------|
----------------------|
----------------------|
-0-0-0---0000---0-00--|
-0-0-0---0000---0-00--|
-0-0-0---0000---0-00--|
 . . .   ....   . ..


PRE-CHORUS
----------------------|
----------------------|
----------------------|
-0-0-0---0000---0-00--|
-0-0-0---0000---0-00--|
-0-0-0---0000---0-00--| 8x
 . . .   ....   . ..

PRE-CHORUS ADDITIONAL GUITAR
(only at 1,3,5,7)
----------------------|
----------------------|
-----------------7-7--|
----------------------|
----------------------|
----------------------| 4x


CHORUS
guitar 1
-----------------------------------------------------------------|
-----------------------------------------------------------------|
-----------------------------------------------------------------|
-5-5--5--5-5--5--8-8--8--8-8--7--0-0--0--0-0--0--1-1--1--3-3--3--|
-5-5--5--5-5--5--8-8--8--8-8--7--0-0--0--0-0--0--1-1--1--3-3--3--|
-5-5--5--5-5--5--8-8--8--8-8--7--0-0--0--0-0--0--1-1--1--3-3--3--| 2x

guitar 2
                  2x |
---------------------|--------------------------------------|
------11--10---------|---11--10--------------11--10---------|
-------------12------|----------12-10---------------12------|
----12----------12---|-12------------------12----------12---|
---------------------|--------------------------------------|
---------------------|--------------------------------------| 2x


Verse
Pre-Chorus (with additional guitar)
Chorus


BRIDGE
-------11-----------11-11-11-11-11-11-|
-------15-----------15-15-15-15-15-15-|
--------------------------------------|
-1-0-0----0-0-1-0-0-------------------|
-1-0-0----0-0-1-0-0-------------------|
-1-0-0----0-0-1-0-0-------------------| 3x
 . . .    . . . . .

-------11-------------|
-------15-------------|
----------------------|
-1-0-0----0-0-1-0-0-0-|
-1-0-0----0-0-1-0-0-0-|
-1-0-0----0-0-1-0-0-0-|
 . . .    . . . . .

----------------11----11----11----11----11----11-|
-------------15----15----15----15----15----15----|
-------------------------------------------------|
-0-0-0-0-0-0-------------------------------------|
-0-0-0-0-0-0-------------------------------------|
-0-0-0-0-0-0-------------------------------------| 8x
 . . . . . .

The 8th time an extra guitar fades in with:
---------|
---------|
---------|
-5-------|
-5-------|
-5-------|


Verse


PRE-OUTRO
guitar 1
-----------------------------------------------------------------|
-----------------------------------------------------------------|
-----------------------------------------------------------------|
-5----5--5----5--8----8--8----7--0----0--0----0--1----1--3----3--|
-5----5--5----5--8----8--8----7--0----0--0----0--1----1--3----3--|
-5----5--5----5--8----8--8----7--0----0--0----0--1----1--3----3--| 2x

guitar 2
                  2x |
---------------------|-----------------------------------------|
------11--10---------|------11--10--------------11--10---------|
-------------12------|-------------12-10---------------12------|
----12----------12---|----12------------------12----------12---|
---------------------|-----------------------------------------|
---------------------|-----------------------------------------| 2x


OUTRO
guitar 1
---------|
---------|
---------|
-5-------|
-5-------|
-5-------|

guitar 2
-----------------------------------------|
-----------------------------------------|
---------------12-------12-------12------|
------------12-------12-------12---------|
---------15-------13-------12-------10---|
------------------------------------12---|





Comments


Popular Ill Nino tabs & chords
Everything Beautiful Bass Tabs
What Comes Around 2 Bass Tabs
De La Vida 1 Tabs
Death Wants More Tabs
God Save Us 1 Tabs
Have You Ever Felt? Tabs
Killing You, Killing Me Tabs
Lifeless Life Tabs
Unreal Tabs
With You 1 Tabs


Song lyrics



↑ Back to top | Tablatures and chords are parodies/interpretations of the original songs. You may use it for private study, scholarship, research or language learning purposes only
© 2014 AZChords.com Contact us | Privacy policy | DMCA | Add/correct tabs | Request tabs | Top 50 tabs