» » »

Unreal Five String Bass tabs (ver.1)

Artists:  A B C D E F G H I J K L M N O P Q R S T U V W X Y Z # 

Unreal Five String Bass tabs (ver.1)

Ill Nino
Rating:
0/5 (0 votes)

Hard to play? Try these video lessons and learn fast.
                Intro 1:
G/-----------------|
D/-----------------|
A/-----------------|
E/-----------------|
B/-4-3----------43-|

Intro 2:
G/------------------|
D/------------------|
A/------------------|
E/------------------|
B/-4-3-1---431------|

Verse 1:
G/----------|
D/----------|
A/----------|
E/----------|
B/-1-4-3----|

Verse 2:
G/---------------------------|
D/---------------------------|
A/---------------------------|
E/---------------------------|
B/-4-3-1--431-4-3-1-4-1------|

Chorus:
G/---------------------|
D/---------------------|
A/---------------------|
E/---------------------|
B/-888888-4-44-44------|

Outro:
G/--------------|
D/--------------|
A/--------------|
E/--------------|
B/-888888-4-----|

That’s about it, I know that he plays a
 4 string bass so don’t have a go at me. 
Oh! And you don’t play anything in the 
Spanish guitar bit
            
Hard to play? Try these video lessons and learn fast. | Correct




comments powered by Disqus
↑ Back to top | Tablatures and chords are parodies/interpretations of the original songs. You may use it for private study, scholarship, research or language learning purposes only