>
 >
Unframed

Unframed Guitar Tabs

Ill Nino - Unframed chords, tabs, tablatures, lyrics

Guitar lessons | Add/correct | Request | Top 50 tabs Artists:  A B C D E F G H I J K L M N O P Q R S T U V W X Y Z 0-9

Unframed Guitar Tabs – Ill Nino

CD, Sheet music, Poster

Do you like Unframed? Share with your friends now
Tabs

TUNED: drop C   (C,G,C,F,A,D)


----------------------------
INTRO
Both guitars
|-----------------|-----------------|-----------------|-----------------|
|-----------------|-----------------|-----------------|-----------------|
|-----------------|-----------------|-----------------|-----------------|
|-5---------------|---------------6-|-5---------------|-5-3-3-353-3-533-|
|-5---------------|---------------6-|-5---------------|-5-3-3-353-3-533-|
|-5---------------|---------------6-|-5---------------|-5-3-3-353-3-533-|


PRE-VERSE
Guitar1
|-----------------|-----------------|-----------------|-----------------|
|-----------------|-----------------|-----------------|-----------------|
|-----------------|-----------------|-----------------|-----------------|
|-----------------|-----------------|-----------------|-----------------|
|-3-5-5--35-5-355-|-3-5-5--35-556---|-3-5-5--35-5-355-|-5-3-3-353-3-533-|
|-3-5-5--35-5-355-|-3-5-5--35-556---|-3-5-5--35-5-355-|-5-3-3-353-3-533-|

Guitar2
|-----------------|-----------------|-----------------|-----------------|
|-----------------|-----------------|-----------------|-----------------|
|---------7-777---|---------8-888---|---------7-777---|-7-5-5---5-555---|
|-3-5-5---X-XXX---|-3-5-5---X-XXX---|-3-5-5---X-XXX---|-X-X-X---X-XXX---|
|-3-5-5---5-555---|-3-5-5---6-666---|-3-5-5---5-555---|-5-3-3---3-333---|
|-3-5-5-----------|-3-5-5-----------|-3-5-5-----------|-----------------|


VERSE
guitar1
|-----------------|-----------------|-----------------|-----------------|
|-----------------|-----------------|-----------------|-----------------|
|-12--------------|-----------------|-12--------------|-----------------|
|-12--------------|-----------------|-12--------------|-----------------|
|-10--------------|-----------------|-10--------------|-----------------|
|-----------------|-----------------|-----------------|-----------------|

guitar2
|-----------------|-----------------|-----------------|-----------------|
|-----------------|-----------------|-----------------|-----------------|
|-----------------|-----------------|-----------------|-----------------|
|---------5-5---5-|-------3-5-5-3-5-|---------5-5---5-|-----------------|
|-------6-----6---|-----------------|-------6-----6---|-----------------|
|-6-5-5-----------|-6-5-5-----------|-6-5-5-----------|-5-3-3-353-3-533-|
PM* * * * * * * *   * * * * * * * *   * * * * * * * *   * * * *** * ***


PRE-CHORUS
guitar1
|-----------------|-----------------|-----------------|-----------------|
|-----------------|-----------------|-----------------|-----------------|
|-----------------|-----------------|-----------------|-----------------|
|-6-5-5-----------|-6-5-5-----------|-6-5-5-----------|-5-3-3-353-3-533-|
|-6-5-5-----------|-6-5-5-----------|-6-5-5-----------|-5-3-3-353-3-533-|
|-6-5-5-----------|-6-5-5-----------|-6-5-5-----------|-5-3-3-353-3-533-|

guitar2
|-----------------|-----------------|-----------------|-----------------|
|-----------------|-----------------|-----------------|-----------------|
|--------78-888---|--------75-555---|--------78-888---|---1514--141514--|
|-6-5-5--XX-XXX---|-6-5-5--XX-XXX---|-6-5-5--XX-XXX---|----X-X---X-X-X--|
|-6-5-5--56-666---|-6-5-5--53-333---|-6-5-5--56-666---|---1312--121312--|
|-6-5-5-----------|-6-5-5-----------|-6-5-5-----------|-----------------|


CHORUS
guitar1
|-----------------|-----------------|-----------------|-----------------|
|-----------------|-----------------|-----------------|-----------------|
|-----------------|-3---3-----------|-----------------|-----------------|
|-5---5-1-1-------|-3---3-3-3-------|-5---5-1-1-------|-5-3-3-353-3-533-|
|-5---5-1-1-------|-1---1-3-3-------|-5---5-1-1-------|-5-3-3-353-3-533-|
|-5---5-1-1-------|-------3-3-------|-5---5-1-1-------|-5-3-3-353-3-533-| 2x

guitar2
|-----------------|-----------------|-----------------|-----------------|
|-----------------|-----------------|-----------------|-----------------|
|-----------------|-3---3-----------|-----------------|---1514--141514--|
|-5---5-1-1-------|-3---3-3-3-------|-5---5-1-1-------|----X-X---X-X-X--|
|-5---5-1-1-------|-1---1-3-3-------|-5---5-1-1-------|---1312--121312--|
|-5---5-1-1-------|-------3-3-------|-5---5-1-1-------|-----------------| 2x


REPEAT PRE-VERSE
REPEAT VERSE
REPEAT PRE-CHORUS
REPEAT CHORUS


BRIDGE
guitar1
|-----------------|-----------------|-----------------|-----------------|
|-----------------|-----------------|-----------------|-----------------|
|-----------------|-----------------|-----------------|-----------------|
|-----------------|-----------------|-----------------|-----------------|
|-----------------|-----------------|-----------------|-----------------|
|-0--0-0-0-0-0000-|-0--0-0-0-0-0-0--|-0--0-0-0-0-0000-|-0--0-0-0--------|

guitar1
|-----------------|-----------------|-----------------|-----------------|
|-----------------|-----------------|-----------------|-----------------|
|-----------------|-----------------|-----------------|-----------------|
|-0--0-0-0-0-0000-|-0--0-0-0-0-0-0--|-0--0-0-0-0-0000-|-0--0-0-0-0-0-1--|
|-0--0-0-0-0-0000-|-0--0-0-0-0-0-0--|-0--0-0-0-0-0000-|-0--0-0-0-0-0-1--|
|-----------------|-----------------|-----------------|-----------------| 2x

guitar2
|-----------------|-----------------|-----------------|-----------------|
|-----------------|-----------------|-----------------|-----------------|
|-----------------|-----------------|-----------------|-----------------|
|-0--0-0-0-0-0000-|-0--0-0-0-0-0-0--|-0--0-0-0-0-0000-|-0--0-0-0-0-0-1--|
|-0--0-0-0-0-0000-|-0--0-0-0-0-0-0--|-0--0-0-0-0-0000-|-0--0-0-0-0-0-1--|
|-----------------|-----------------|-----------------|-----------------|

|-----------------|-----------------|-----------------|-----------------|
|-----------------|-----------------|-----------------|-----------------|
|-1414141414141414|-1415151515151515|-1212121215151517|-1414141414141414|
|--X-X-X-X-X-X-X-X|--X-X-X-X-X-X-X-X|--X-X-X-X-X-X-X-X|--X-X-X-X-X-X-X-X|
|-1212121212121212|-1213131313131313|-1010101013131315|-1212121212121212|
|-----------------|-----------------|-----------------|-----------------|

After that, guitar2 plays this:
|-----------------|-----------------|-----------------|-----------------|
|-----------------|-----------------|-----------------|-----------------|
|-----------------|-------0---2-----|-------3---5-----|-----------------|
|-------7---8-----|-----------------|-----------------|-------5---7-----|
|-----------------|-----------------|---1-------------|-----------------|
|---5-------------|---1-------------|-----------------|---3-------------|

|-----------------|-----------------|-----------------|-----------------|
|-----------------|-----------------|-----------------|-----------------|
|-----------------|-------0---2-----|-----------------|-----------------|
|-------7---8-----|-----------------|-------5---7-----|-7-8---7---5-----|
|-----------------|-----------------|-----------------|-----------------|
|---5-------------|---1-------------|---3-------------|-----------------|

|-----------------|-----------------|-----------------|-----------------|
|-----------------|-----------------|-----------------|-----------------|
|-----------------|-------0---2-----|-------3---5-----|-----------------|
|-------7---8-----|-----------------|-----------------|-------5---7-----|
|-----------------|-----------------|---1-------------|-----------------|
|---5-------------|---1-------------|-----------------|---3-------------|

|-----------------|-----------------|-----------------|-----------------|
|-----------------|-----------------|-----------------|-----------------|
|-----------------|-------0---2-----|-----------------|-----------------|
|-------7---8-----|-----------------|---7-------------|-----------------|
|-----------------|-----------------|-----------------|-----------------|
|---5-------------|---1-------------|---3-------------|-----------------|


REPEAT CHORUS

OUTRO
guitar1
|-----------------|-----------------|-----------------|-----------------|
|-----------------|-----------------|-----------------|-----------------|
|-----------------|-3-3-3-----------|-----------------|-----------------|
|-5-5-5-1-1-1-1-1-|-3-3-3-3-3-3-3-3-|-5---5-1-1-1-1-1-|-5-3-3-353-3-533-|
|-5-5-5-1-1-1-1-1-|-1-1-1-3-3-3-3-3-|-5---5-1-1-1-1-1-|-5-3-3-353-3-533-|
|-5-5-5-1-1-1-1-1-|-------3-3-3-3-3-|-5---5-1-1-1-1-1-|-5-3-3-353-3-533-| 2x

|-----------------|-----------------|
|-----------------|-----------------|
|-----------------|-----------------|
|-5-3-3-353-3-533-|---5-------------|
|-5-3-3-353-3-533-|---5-------------|
|-5-3-3-353-3-533-|---5-------------|

guitar2
|-----------------|-----------------|-----------------|-----------------|
|-----------------|-----------------|-----------------|-----------------|
|-----------------|-3-3-3-----------|-----------------|---1514--141514--|
|-5-5-5-1-1-1-1-1-|-3-3-3-3-3-3-3-3-|-5---5-1-1-1-1-1-|----X-X---X-X-X--|
|-5-5-5-1-1-1-1-1-|-1-1-1-3-3-3-3-3-|-5---5-1-1-1-1-1-|---1312--121312--|
|-5-5-5-1-1-1-1-1-|-------3-3-3-3-3-|-5---5-1-1-1-1-1-|-----------------| 2x

|-----------------|-----------------|
|-----------------|-----------------|
|---1514--141514--|-----------------|
|----X-X---X-X-X--|---5-------------|
|---1312--121312--|---5-------------|
|-----------------|---5-------------|





Comments


Popular Ill Nino tabs & chords
Iam Loco Bass Tabs
Me Gusta La Soledad" Chords
Barely Breathing 1 Tabs
Corazon Of Mine Tabs
God Save Us 1 Tabs
Have You Ever Felt? 1 Tabs
I Am Loco Tabs
No Murder 1 Tabs
Nothing's Clear Tabs
Unreal 1 Tabs


Song lyrics



↑ Back to top | Tablatures and chords are parodies/interpretations of the original songs. You may use it for private study, scholarship, research or language learning purposes only
© 2014 AZChords.com Contact us | Privacy policy | DMCA | Add/correct tabs | Request tabs | Top 50 tabs