>
 >
Turns To Gray 2

Turns To Gray 2 Guitar Tabs

Ill Nino - Turns To Gray 2 chords, tabs, tablatures, lyrics

Guitar lessons | Add/correct | Request | Top 50 tabs Artists:  A B C D E F G H I J K L M N O P Q R S T U V W X Y Z 0-9

Turns To Gray 2 Guitar Tabs – Ill Nino

CD, Sheet music, Poster

Do you like Turns To Gray 2? Share with your friends now
TabsTabs v2Tabs v3
Ill Nino: Turns To Gray




Tuning: Drop C (C,G,C,F,A,D)

Riff 1
Guitar 1
D|---------------------------------|
A|---------------------------------|
F|-----8---7---------8---7-----5/7-|
C|-----x---x---------x---x-----x-x-|
G|-----6---5---------6---5-----3/5-|
C|-0-0---0---0-0-0-0---0---0-0-----|
   * *   *   * * * *   *   * *
D|----------------------------------|
A|----------------------------------|
F|-----8---7---------8---15-----8\7-|
C|-----x---x---------x---x------x-x-|
G|-----6---5---------6---13-----6\5-|
C|-0-0---0---0-0-0-0---0----0-0-----|
   * *   *   * * * *   *    * *

Riff 1a
Guitar 1
D|------------------------------------|
A|------------------------------------|
F|--------8---7---------8---7-----5/7-|
C|--------x---x---------x---x-----x-x-|
G|--------6---5---------6---5-----3/5-|
C|-000000---0---0-0-0-0---0---0-0-----|
   ******   *   * * * *   *   * *
D|-------------------------------------|
A|-------------------------------------|
F|--------8---7---------8---15-----8\7-|
C|--------x---x---------x---x------x-x-|
G|--------6---5---------6---13-----6\5-|
C|-000000---0---0-0-0-0---0----0-0-----|
   ******   *   * * * *   *    * *

Riff 1a
Guitar 2
D|------------------------------------|
A|------------------------------------|
F|------------------------------------|
C|--------5---4---------5---4-----2/4-|
G|--------6---5---------6---5-----3/5-|
C|-000000---0---0-0-0-0---0---0-0-----|
   ******   *   * * * *   *   * *
D|-------------------------------------|
A|-------------------------------------|
F|-------------------------------------|
C|--------5---4---------5---12-----5\4-|
G|--------6---5---------6---13-----6\5-|
C|-000000---0---0-0-0-0---0----0-0-----|
   ******   *   * * * *   *    * *

Riff 2   "You will never learn to stop falling down..."
D|----------------------|
A|----------------------|
F|----------------------|
C|----------------------|
G|-000000--------000000-|
C|-000000--------000000-|
   ******        ******

Riff 3   "I live and breathe for you..."
Guitar 1
D|---------------------------------|
A|---------------------------------|
F|-7-7-7-7-7-7-7-7-7-7-7-7-7-7-7-7-|
C|-x-x-x-x-x-x-x-x-x-x-x-x-x-x-x-x-|
G|-5-5-5-5-5-5-5-5-5-5-5-5-5-5-5-5-|
C|---------------------------------|

D|---------------------------------|
A|---------------------------------|
F|-8-8-8-8-8-8-8-8-8-8-8-8-8-8-8-8-|
C|-x-x-x-x-x-x-x-x-x-x-x-x-x-x-x-x-|
G|-6-6-6-6-6-6-6-6-6-6-6-6-6-6-6-6-|
C|---------------------------------|

D|---------------------------------|
A|---------------------------------|
F|-5-5-5-5-5-5-5-5-5-5-5-5-5-5-5-5-|
C|-x-x-x-x-x-x-x-x-x-x-x-x-x-x-x-x-|
G|-3-3-3-3-3-3-3-3-3-3-3-3-3-3-3-3-|
C|---------------------------------|

D|--------------------------------|
A|--------------------------------|
F|-8-8------7-7------8-8------7-7-|
C|-x-x------x-x------x-x------x-x-|
G|-6-6------5-5------6-6------5-5-|
C|-----0000-----0000-----0000-----|
       ****     ****     ****

Riff 3
Guitar 2
D|-------------------------------------------------|
A|-10-10-10-10-10-10-10-10-10-10-10-10-10-10-10-10-|
F|-------------------------------------------------|
C|-------------------------------------------------|
G|-------------------------------------------------|
C|-------------------------------------------------|

D|-------------------------------------------------|
A|-11-11-11-11-11-11-11-11-11-11-11-11-11-11-11-11-|
F|-------------------------------------------------|
C|-------------------------------------------------|
G|-------------------------------------------------|
C|-------------------------------------------------|

D|---------------------------------|
A|-8-8-8-8-8-8-8-8-8-8-8-8-8-8-8-8-|
F|---------------------------------|
C|---------------------------------|
G|---------------------------------|
C|---------------------------------|

D|--------------------------------|
A|--------------------------------|
F|-8-8------7-7------8-8------7-7-|
C|-x-x------x-x------x-x------x-x-|
G|-6-6------5-5------6-6------5-5-|
C|-----0000-----0000-----0000-----|
       ****     ****     ****

Riff 4   "How much more will you take..."
Guitar 1
D|-------------------------------------------------|
A|-------------------------------------------------|
F|-------------------------------------------------|
C|-5-5-5-5-5-5-5-5-5-5-5-5-1-1-1-1-1-1-1-1-1-1-1-1-|
G|-5-5-5-5-5-5-5-5-5-5-5-5-1-1-1-1-1-1-1-1-1-1-1-1-|
C|-5-5-5-5-5-5-5-5-5-5-5-5-1-1-1-1-1-1-1-1-1-1-1-1-|

D|------------------------------------|
A|------------------------------------|
F|--------8---7---------8---7-----5/7-|
C|--------x---x---------x---x-----x-x-|
G|--------6---5---------6---5-----3/5-|
C|-000000---0---0-0-0-0---0---0-0-----|
   ******   *   * * * *   *   * *
D|-------------------------------------|
A|-------------------------------------|
F|--------8---7---------8---15-----8\7-|
C|--------x---x---------x---x------x-x-|
G|--------6---5---------6---13-----6\5-|
C|-000000---0---0-0-0-0---0----0-0-----|
   ******   *   * * * *   *    * *

Riff 4
Guitar 2
D|-------------------------------------------------|
A|-------------------------------------------------|
F|-12-12-12-10-10-10----------15-15-15-14-14-------|
C|-------------------12-12-12----------------15-15-|   x2
G|-------------------------------------------------|
C|-------------------------------------------------|

D|--------------------------------------|
A|-16~-------16~-------16~-------16~----|
F|----19~-------19~-------19~-------19~-|
C|--------------------------------------|
G|--------------------------------------|
C|--------------------------------------|

Play Riff 2   "You will never learn to stop lashing out..."
Play Riff 3   "I live and breathe for you..."
Play Riff 4   "How much more will you take..."

Riff 5
Guitar 1
D|------------------|
A|------------------|
F|------------------|
C|-0~---------------|
G|-0~---------------|
C|-0~---------------|

Riff 6   "Give me life..."
Guitar 2
D|----------------------------|
A|----------------------------|
F|----------------------------|
C|-12--------13-10-13-12------|
G|-12--0-0-0-13-10-13-12--0-0-|
C|-12--0-0-0-13-10-13-12--0-0-|
       * * *              * *
D|------------|
A|------------|
F|------------|
C|------------|
G|-0-0----0-0-|
C|-0-0----0-0-|
   * *    * *
D|----------------------------|
A|----------------------------|
F|----------------------------|
C|-12--------13-10-13-12------|
G|-12--0-0-0-13-10-13-12--0-0-|
C|-12--0-0-0-13-10-13-12--0-0-|
       * * *              * *
D|----------|
A|----------|
F|----------|
C|----------|
G|-0-0----0-|
C|-0-0----0-|
   * *    *

Riff 7
D|------------------------------------------|
A|------------------------------------------|
F|------------------------------------------|
C|-12--------13-10-13-12--------------------|
G|-12--0-0-0-13-10-13-12--0-0--0-0-0--0-0-0-|
C|-12--0-0-0-13-10-13-12--0-0--0-0-0--0-0-0-|
       * * *              * *  * * *  * * *

Riff 8
D|-------------------------------------------|
A|-------------------------------------------|
F|-------------------------------------------|
C|-12--------13-10-13-12---------------------|
G|-12--0-0-0-13-10-13-12-0-0-0--0-0-0--0-0-0-|
C|-12--0-0-0-13-10-13-12-0-0-0--0-0-0--0-0-0-|
       * * *             * * *  * * *  * * *

Riff 9
D|--------------------------------------------|
A|--------------------------------------------|
F|--------------------------------------------|
C|-0----------13-10-13-12---------------------|
G|-0--0-0-0-0-13-10-13-12-0-0-0--0-0-0--0-0-0-|
C|-0--0-0-0-0-13-10-13-12-0-0-0--0-0-0--0-0-0-|
      * * * *             * * *  * * *  * * *

Riff 10
D|------------------------------|
A|------------------------------|
F|------------------------------|
C|-0~---------------------------|
G|-0~---------------------------|
C|-0~---------------------------|


Notation:

10^        = bend a quarter step.
10b11      = bend a half step.
10b12      = bend a full step.
10b12r10   = bend and release.
[10]12     = pre-bend.
[10]12r10  = pre-bend and release.
{14}       = pick the 14th fret while holding the most 
             previous bend.
<17>       = touch the string above the 17th fret while 
             previous note(s) is(are) still ringing.

10b13*     = tremolo bar bend, from the 10th fret to the 13th fret.
7d4*       = tremolo bar dive, from the 7th fret to the 4th fret. 
12~*       = tremolo bar vibrato.

x   =  mute with fret-hand
*   =  palm mute
X\\ =  pick slide
h   =  hammer-on
p   =  pull-off
~   =  vibrato
t   =  finger tap
/   =  slide up
\   =  slide down
h.  =  natural harmonics
a   =  artificial harmonics
(9) =  ghost note
tm  =  trem picking
tr  =  trill





Comments


Popular Ill Nino tabs & chords
Cleansing Bass Tabs
Predisposed Bass Tabs
Me Gusta La Soledad" Chords
Eva Tabs
Five Minutes Alone Tabs
I Am Loco 1 Tabs
If You Still Hate Me Tabs
Rumba 2 Tabs
Unreal 2 Tabs
Liar Ukulele


Song lyrics



↑ Back to top | Tablatures and chords are parodies/interpretations of the original songs. You may use it for private study, scholarship, research or language learning purposes only
© 2014 AZChords.com Contact us | Privacy policy | DMCA | Add/correct tabs | Request tabs | Top 50 tabs