» » »

Scarred Tabs (ver.1)

Artists:  A B C D E F G H I J K L M N O P Q R S T U V W X Y Z # 

Scarred Tabs (ver.1)

Ill Nino
Rating:
0/5 (0 votes)

Hard to play? Try these video lessons and learn fast.
                Tempo = 
drop-a tuning (A E A D G B E)


INTRO pt1 (2x)

|gtr 1
|----------------------------------------------------|
|----------------------------------------------------|
|----------------------------------------------------|
|---------------8--7---------------7--5-----5--------|
|--0-0-0-0-0-0--------0--0-0-0--0--------8----8-7-5--|
|----------------------------------------------------|
|----------------------------------------------------|
|  PM.........        ...........
|
|gtr 2
|----------------------------------------------------|
|----------------------------------------------------|
|----------------------------------------------------|
|----------------------------------------------------|
|----------------------------------------------------|
|----------------------------------------------------|
|--0-0-0-0-0-0---------------------------------------|
|  PM.........

|gtr 1
|----------------------------------------------------|
|----------------------------------------------------|
|----------------------------------------------------|
|---------------8--7---------------7--5-----5--------|
|--0-0-0-0-0-0--------0--0-0-0--0--------8-----8--7--|
|----------------------------------------------------|
|----------------------------------------------------|
|  PM.........        ...........
|
|gtr 2
|----------------------------------------------------|
|----------------------------------------------------|
|----------------------------------------------------|
|----------------------------------------------------|
|----------------------------------------------------|
|----------------------------------------------------|
|--0-0-0-0-0-0---------------------------------------|
|  PM.........


INTRO pt2 (2x)

|gtr 1
|----------------------------------------------------|
|----------------------------------------------------|
|----------------------------------------------------|
|---------------8--7---------------7--5-----5--------|
|--0-0-0-0-0-0--------0--0-0-0--0--------8----8-7-5--|
|----------------------------------------------------|
|----------------------------------------------------|
|  PM.........        ...........
|
|gtr 2
|----------------------------------------------------|
|----------------------------------------------------|
|----------------------------------------------------|
|----------------------------------------------------|
|----------------------------------------------------|
|---------------6--5---------------5--3--1--3-1-0----|
|--0-0-0-0-0-0--------0--0-0-0--0-----------------5--|
|  PM.........        ...........

|gtr 1
|----------------------------------------------------|
|----------------------------------------------------|
|----------------------------------------------------|
|---------------8--7---------------7--5-----5--------|
|--0-0-0-0-0-0--------0--0-0-0--0--------8-----8--7--|
|----------------------------------------------------|
|----------------------------------------------------|
|  PM.........        ...........
|
|gtr 2
|----------------------------------------------------|
|----------------------------------------------------|
|----------------------------------------------------|
|----------------------------------------------------|
|----------------------------------------------------|
|---------------6--5---------------5--3--1--3--1--0--|
|--0-0-0-0-0-0--------0--0-0-0--0--------------------|
|  PM.........        ...........


INTRO pt3

|gtr 1
|----------------------------------------------------|
|----------------------------------------------------|
|----------------------------------------------------|
|---------------8--7---------------7--5-----5--------|
|--0-0-0-0-0-0--------0--0-0-0--0--------8----8-7-5--|
|----------------------------------------------------|
|----------------------------------------------------|
|  PM.........        ...........
|
|gtr 2
|----------------------------------------------------|
|----------------------------------------------------|
|----------------------------------------------------|
|----------------------------------------------------|
|---------------5--4---------------4-----------------|
|-------------------------------------6--5--6-5-3-1--|
|--0-0-0-0-0-0--------0--0-0-0--0--------------------|
|  PM.........        ...........

|gtr 1
|----------------------------------------------------|
|----------------------------------------------------|
|----------------------------------------------------|
|---------------8--7---------------7--5-----5--------|
|--0-0-0-0-0-0--------0--0-0-0--0--------8-----8--7--|
|----------------------------------------------------|
|----------------------------------------------------|
|  PM.........        ...........
|
|gtr 2
|----------------------------------------------------|
|----------------------------------------------------|
|----------------------------------------------------|
|----------------------------------------------------|
|---------------5--4---------------4-----------------|
|-------------------------------------6--5--6--5--3--|
|--0-0-0-0-0-0--------0--0-0-0--0--------------------|
|  PM.........        ...........

|gtr 1
|----------------------------------------------------|
|----------------------------------------------------|
|----------------------------------------------------|
|---------------8--7---------------7--5-----5--------|
|--0-0-0-0-0-0--------0--0-0-0--0--------8----8-7-5--|
|----------------------------------------------------|
|----------------------------------------------------|
|  PM.........        ...........
|
|gtr 2
|----------------------------------------------------|
|----------------------------------------------------|
|----------------------------------------------------|
|----------------------------------------------------|
|---------------5--4---------------4-----------------|
|-------------------------------------6--5--6-5-3-1--|
|--0-0-0-0-0-0--------0--0-0-0--0--------------------|
|  PM.........        ...........

|gtr 1
|----------------------------------------------------|
|------------------------------------------5-6-8-----|
|--------------------------------------5-7-----------|
|---------------8--7---------------7-8---------------|
|--0-0-0-0-0-0--------0--0-0-0--0--------------------|
|----------------------------------------------------|
|----------------------------------------------------|
|  PM.........        ...........
|
|gtr 2
|----------------------------------------------------|
|----------------------------------------------------|
|--------------------------------------------2-3-----|
|--------------------------------------2-3-5---------|
|---------------5--4---------------4-5---------------|
|----------------------------------------------------|
|--0-0-0-0-0-0--------0--0-0-0--0--------------------|
|  PM.........        ...........


INTRO pt4 (1x)

|gtr
|-----6----------6----------6----------6-------------|
|--10---10----10---10----10---10----10---10----------|
|----------------------------------------------------|
|----------------------------------------------------|
|----------------------------------------------------|
|----------------------------------------------------|
|----------------------------------------------------|


VERSE pt1 (3x)

|gtr
|---------------------------------|
|---------------------------------|
|---------------------------------|
|---------------------------------|
|---------------------------------|
|----------------------------3-0--|
|--6-0--0-1-0--0-3-0--0-1-0--3-0--|
|                            PM.

VERSE pt2 (1x)

|gtr
|---------------------------------|
|---------------------------------|
|---------------------------------|
|---------------------------------|
|----------------3\6-6-6-6-6-6-6--|
|----------------3\6-6-6-6-6-6-6--|
|--6-0--0-1-0--0-3\6-6-6-6-6-6-6--|


VERSE pt1 (3x)
VERSE pt2 (1x)


PRE-CHORUS (2x)

|gtr
|-------------------------------------------|
|-------------------------------------------|
|-------------------------------------------|
|-------------------------------------------|
|-------------------------------------------|
|-------------------------------------------|
|--0-0-----0-0-0--0-0-----0-0-0--0-0--------|
   PM.     ..........     ..........


CHORUS

|gtr
|--------------------------------------------|
|--------------------------------------------|
|--------------------------------------------|
|--------------------------------------------|
|--------------------------------------------|
|--0--------1----1-1-3--------5-----5-5-5-5--|
|--0--------1----1-1-3--------5-----5-5-5-5--|
|--0--------1----1-1-3--------5-----5-5-5-5--|
                 PM.                .......

|gtr
|--------------------------------------------|
|--------------------------------------------|
|--------------------------------------------|
|--------------------------------------------|
|--------------------------------------------|
|--0--------1----1-1-3--------5-5-5-5-5-5-5--|
|--0--------1----1-1-3--------5-5-5-5-5-5-5--|
|--0--------1----1-1-3--------5-5-5-5-5-5-5--|
                 PM.            ...........

|gtr
|--------------------------------------------|
|--------------------------------------------|
|--------------------------------------------|
|--------------------------------------------|
|--------------------------------------------|
|--0--------1----1-1-3--------5-----5-5-5-5--|
|--0--------1----1-1-3--------5-----5-5-5-5--|
|--0--------1----1-1-3--------5-----5-5-5-5--|
                 PM.                .......

|gtr
|--------------------------------------------|
|--------------------------------------------|
|--------------------------------------------|
|--------------------------------------------|
|--------------------------------------------|
|--0--------1----1-1-3--------5--------------|
|--0--------1----1-1-3--------5--------------|
|--0--------1----1-1-3--------5--------------|
                 PM.


INTRO pt3 (3x)
INTRO pt4

VERSE pt1 (3x)
VERSE pt2 (1x)

VERSE pt1 (3x)
VERSE pt2 (1x)

PRE-CHORUS (2x)

CHORUS


BRIDGE pt1 (4x)

|gtr
|-------------------------------------------|
|-------------------------------------------|
|-------------------------------------------|
|-------------------------------------------|
|-------------------------------------------|
|-------------------------------------------|
|--0-0-----0-0-0--0-0-----0-0-0--0-0--------|
   PM.     ..........     ..........


BRIDGE pt2 (2x)

|gtr 1
|-------------------------------------------|
|-------------------------------------------|
|-------------------------------------------|
|-------------------------------------------|
|-------------------------------------------|
|------6-5--------5-4-----------------------|
|--0-0-----0-0-0----------0-0-0--0-0-8-7-5--|
|  PM.     .....          ..........
|
|gtr 2
|-------------------------------------------|
|-------------------------------------------|
|-------------------------------------------|
|-------------------------------------------|
|-------------------------------------------|
|-------------------------------------------|
|--0-0-----0-0-0--0-0-----0-0-0--0-0--------|
   PM.     ..........     ..........


BRIDGE pt3 (2x)

|gtr 1
|-------------------------------------------|
|-------------------------------------------|
|-------------------------------------------|
|-------------------------------------------|
|------5-4--------4-3----------------4-3-1--|
|-------------------------------------------|
|--0-0-----0-0-0----------0-0-0--0-0--------|
|  PM.     .....          ..........
|
|gtr 2
|-------------------------------------------|
|-------------------------------------------|
|-------------------------------------------|
|-------------------------------------------|
|-------------------------------------------|
|------6-5--------5-4-----------------------|
|--0-0-----0-0-0----------0-0-0--0-0-8-7-5--|
   PM.     .....          ..........


BRIDGE pt4 (2x)

|gtr 1
|-------------------------------------------|
|-------------------------------------------|
|-------------------------------------------|
|-------------------------------------------|
|-------------------------------------------|
|------6-5--------5-4-----------------------|
|--0-0-----0-0-0----------0-0-0--0-0-8-7-5--|
|  PM.     .....          ..........
|
|gtr 2
|-------------------------------------------|
|------6-5--------5-4----------------6-5-4--|
|-------------------------------------------|
|-------------------------------------------|
|-------------------------------------------|
|-------------------------------------------|
|--0-0-----0-0-0----------0-0-0--0-0--------|
   PM.     .....          ..........


BRIDGE pt5 (acoustic part)

|gtr 1
|-------------------------------------------|
|--------2-------3-------5-------6----------|
|------2-------3-------5-------7------------|
|----2-------3-------5-------7--------------|
|--0-------1-------3-------5----------------|
|-------------------------------------------|
|-------------------------------------------|
|
|
|gtr 2
|-------------------------------------------|
|-------------------------------------------|
|-------------------------------------------|
|--------------------------------5h---------|
|-------------------------------------------|
|-------------------------------------------|
|-------------------------------------------|


|gtr 1
|-------------------------------------------|
|--------2-------3-------5-------6----------|
|------2-------3-------5-------7------------|
|----2-------3-------5-------7--------------|
|--0-------1-------3-------5----------------|
|-------------------------------------------|
|-------------------------------------------|
|
|
|gtr 2
|-------------------------------------------|
|----------5h6p5------5-6-8-8\10-10---------|
|------6-7----------7-----------------------|
|--7----------------------------------------|
|-------------------------------------------|
|-------------------------------------------|
|-------------------------------------------|


|gtr 1
|-------------------------------------------|
|--------2-------3-------5-------6----------|
|------2-------3-------5-------7------------|
|----2-------3-------5-------7--------------|
|--0-------1-------3-------5----------------|
|-------------------------------------------|
|-------------------------------------------|
|
|
|gtr 2 & 3
|-------------------------------------------|
|--5-------6-------5------------------------|
|--6-------7-------5-------7-----4----------|
|--------------------------8-----5----------|
|-------------------------------------------|
|-------------------------------------------|
|-------------------------------------------|


|gtr 1
|-------------------------------------------|
|--------2-------3-------5-------6----------|
|------2-------3-------5-------7------------|
|----2-------3-------5-------7--------------|
|--0-------1-------3-------5----------------|
|-------------------------------------------|
|-------------------------------------------|
|
|
|gtr 2 & 3
|-----------\5----------------5-------------|
|-------------------8-6-5-6-8---8-6-5-------|
|--6----------------------------------------|
|--7----------------------------------------|
|-------------------------------------------|
|-------------------------------------------|
|-------------------------------------------|


OUTRO pt1 (6x)

|gtr
|-------------------------------------------|
|-------------------------------------------|
|-------------------------------------------|
|-------------------------------------------|
|--------------5-\-7-------------7-\-8------|
|--------------3-\-5-------------5-\-6------|
|--0-0-0-0-0-0-------0-0-0-0-0-0------------|

|gtr
|-------------------------------------------|
|-------------------------------------------|
|-------------------------------------------|
|-------------------------------------------|
|--------------8-\-10------------12-\-10----|
|--------------6-\-8-------------10-\-8-----|
|--0-0-0-0-0-0-------0-0-0-0-0-0------------|


OUTRO pt2 (2x)

|gtr
|-------------------------------------------|
|-------------------------------------------|
|-------------------------------------------|
|-------------------------------------------|
|-------------------------------------------|
|-------------------------------------------|
|--0-0-----0-0-0--0-0-----0-0-0--0-0--------|
   PM.     ..........     ..........


Hope you enjoy it!!!
Please rate this tab so that I continue tabbing Ill Nino songs :)
            
Hard to play? Try these video lessons and learn fast. | Correct




comments powered by Disqus
↑ Back to top | Tablatures and chords are parodies/interpretations of the original songs. You may use it for private study, scholarship, research or language learning purposes only