» » »

Rumba Tabs (ver.1)

Artists:  A B C D E F G H I J K L M N O P Q R S T U V W X Y Z # 

Rumba Tabs (ver.1)

Ill Nino
Rating:
0/5 (0 votes)

Hard to play? Try these video lessons and learn fast.
                Tuning: Drop D (D,A,D,G,B,E)

Intro / Interlude 1
E|--------------------------------|
B|--------------------------------|
G|--7---8---10--8-10--------------|
D|--7---8---10--8-10--------------|
A|--5---6----8--6--8--------------|
D|--------------------------------|

Chorus Gtr.1                        Chorus Gtr.2
E|--------------------------------| |-------------------------------------|
B|--------------------------------| |-------------------------------------|
G|--------------------------------| |--9-9-7--9-9-7--9-9-7---12-10-10-12--|
D|--2-2-0--2-2-0--2-2-0--5-3-3-5--| |--9-9-7--9-9-7--9-9-7---12-10-10-12--|
A|--2-2-0--2-2-0--2-2-0--5-3-3-5--| |--7-7-5--7-7-5--7-7-5---10--8--8-10--|
D|--2-2-0--2-2-0--2-2-0--5-3-3-5--| |-------------------------------------|

Couplet                             Couplet end
E|--------------------------------| |-------------------------------------|
B|--------------------------------| |-------------------------------------|
G|-------------6-6-6--------------| |-------------6-6-6-------------------|
D|--5---8-8-8--6-6-6--------------| |--5---8-8-8--6-6-6-------------------|
A|--5---8-8-8--4-4-4--------------| |--5---8-8-8--4-4-4-------------------|
D|--5---8-8-8---------------------| |--5---8-8-8--------------------------|
                                           . . .  . . .
Interlude 2
E|-----------------------3-3-3----|
B|--3-3-3--5-5-5--6-6-6-----------|
G|--------------------------------|
D|--------------------------------|
A|--------------------------------|
D|--------------------------------|

Thats all...
            
Hard to play? Try these video lessons and learn fast. | Correct




comments powered by Disqus
↑ Back to top | Tablatures and chords are parodies/interpretations of the original songs. You may use it for private study, scholarship, research or language learning purposes only