» » »

Rip Out Your Eyes Tabs (ver.1)

Artists:  A B C D E F G H I J K L M N O P Q R S T U V W X Y Z # 

Rip Out Your Eyes Tabs (ver.1)

Ill Nino
Rating:
0/5 (0 votes)

Hard to play? Try these video lessons and learn fast.
                
C Tuning

x = mute
. = palm mute

Intro (lightly palm muted)
-------------------------------------
------------------------------------
------------------------------------
------------------------------------
------------------------------------
--12-12-0-12-13-0--12-12-0-12-13-0--

---------------
---------------
---------------
--0-0-0-0-0-0--
--0-0-0-0-0-0--
--0-0-0-0-0-0--
  . . . . . .

Verse
-10-10-10-10-10-10-10-10-10-10-10-10-10-10-10-10-10-10-10-10-10--
--x--x--x--x--x--x--x--x--x--x--x--x--x--x--x--x--x--x--x--x--x--
--8--8--8--8--8--8--8--8--8--8--8--8--8--8--8--8--8--8--8--8--8--

Chorus
-------------------------------
-------------------------------
----------------------------7--
--0-0-1--0-0-1--0-0-1--0-0--6--
--0-0-1--0-0-1--0-0-1--0-0--5--
--0-0-1--0-0-1--0-0-1--0-0-----

-------------------------------
-------------------------------
----------------------------6--
--0-0-1--0-0-1--0-0-1--0-0--5--
--0-0-1--0-0-1--0-0-1--0-0--4--
--0-0-1--0-0-1--0-0-1--0-0-----

Build up to end....
-----|-----|------|------|------|------|------|------
-----|-----|------|------|------|------|------|------
--7--|--9--|--10--|--12--|--14--|--15--|--17--|--19--
--x--|--x--|---x--|---x--|---x--|---x--|---x--|---x--
--5--|--7--|---8--|--10--|--12--|--13--|--15--|--17--
-----|-----|------|------|------|------|------|------
*Play each octave 6 times except for the last one thats played 4 times
            
Hard to play? Try these video lessons and learn fast. | Correct




comments powered by Disqus
↑ Back to top | Tablatures and chords are parodies/interpretations of the original songs. You may use it for private study, scholarship, research or language learning purposes only