>
 >
Revolucion / Revolucion Bits And Peices

Revolucion / Revolucion Bits And Peices Guitar Tabs

Ill Nino - Revolucion / Revolucion Bits And Peices chords, tabs, tablatures, lyrics

Guitar lessons | Add/correct | Request | Top 50 tabs Artists:  A B C D E F G H I J K L M N O P Q R S T U V W X Y Z 0-9

Revolucion / Revolucion Bits And Peices Guitar Tabs – Ill Nino

CD, Sheet music, Poster

Do you like Revolucion / Revolucion Bits And Peices? Share with your friends now
Tabs
Ill Nino
Revolucion / Revolucion CD 
Bits and pieces

I bought this album and that evening i worked this out. 
Recommend the album to everyone

All songs in Drop D - D A D G B e


If You Still Hate Me

intro  w/heavy distortion
e|---------------------------------|
B|---------------------------------|
G|---------------------------------|
D|-2-1-0-0-2-1-0-0-2-1-0-0-2-1-0-0-|
A|-2-1-0-0-2-1-0-0-2-1-0-0-2-1-0-0-|
D|-2-1-0-0-2-1-0-0-2-1-0-0-2-1-0-0-|


Unreal

chorus  w/heavy distortion
e|---------------------|
B|---------------------|
G|---------------------|
D|-5-5-5-5-1-1-1-1-1-1-|
A|-5-5-5-5-1-1-1-1-1-1-|
D|-5-5-5-5-1-1-1-1-1-1-|


Nothing's Clear

intro/verse   w/some effects like phasor + flanger
e|----------------------|
B|----------------------|
G|----------------------|
D|----------------------|
A|--3-3-4-4-3-3-1-1-3-4-|
D|----------------------|

verse2   w/heavy distortion
e|-------------------|    e|-------------------|
B|-------------------|    B|-------------------|
G|--5--6--5--6--5-6--| or G|--5--6--5--3--5-6--|
D|--5--6--5--6--5-6--|    D|--5--6--5--3--5-6--|
A|--3--4--3--4--3-4--|    A|--3--4--3--1--3-4--|
D|-------------------|    D|-------------------|

chorus  w/heavy distortion
e|---------------------------|
B|---------------------------|
G|---------------------------|
D|--5-5-5-1-1-1-6-6-6-0-0-0--| Not sure about that last chord.
A|--5-5-5-1-1-1-6-6-6-0-0-0--| Email me if you can guess better.
D|--5-5-5-1-1-1-6-6-6-0-0-0--|


What comes around

chorus   w/heavy distortion
e|-----------------|
B|-----------------|
G|-----------------|
D|-3-3-3-3-6-6-6-6-|
A|-3-3-3-3-6-6-6-6-|
D|-3-3-3-3-6-6-6-6-|


Rumba

main bit    w/heavy distortion
e|------------------------------|
B|------------------------------|
G|------------------------------|
D|-5-5-3--5-5-3--5-5-3--8-6-6-8-|
A|-5-5-3--5-5-3--5-5-3--8-6-6-8-|
D|-5-5-3--5-5-3--5-5-3--8-6-6-8-|


(Pre)disposed

chorus    w/heavy distortion 
e|-----------------------------------|
B|-----------------------------------|
G|-----------------------------------|
D|-6-6-6-6-6-6/10-10\3-3-3-3-3-3-3-3-|
A|-6-6-6-6-6-6/10-10\3-3-3-3-3-3-3-3-|
D|-6-6-6-6-6-6/10-10\3-3-3-3-3-3-3-3-|


Revolution / Revolucion

chorus    w/heavy distortion
e|------------------------------------|
B|------------------------------------|
G|------------------------------------|
D|-2-1--2-2-2-2-1--2-2-2-1--2-2-2-2-1-|
A|-2-1--2-2-2-2-1--2-2-2-1--2-2-2-2-1-|
D|-2-1--2-2-2-2-1--2-2-2-1--2-2-2-2-1-|

verse   w/heavy distortion
e|-------------|
B|-------------|
G|-------------|
D|-2-1-0-1-0-1-|
A|-2-1-0-1-0-1-|
D|-2-1-0-1-0-1-|
 pm...........





Comments


Popular Ill Nino tabs & chords
God Save Us Bass Tabs
2012 Intro Tabs
Corazon Of Mine 1 Tabs
De La Vida 3 Tabs
Death Wants More Tabs
Liar 1 Tabs
Lifeless Life 1 Tabs
This Is War Tabs
Unreal 1 Tabs
What Comes Around Remix Tabs


Song lyrics



↑ Back to top | Tablatures and chords are parodies/interpretations of the original songs. You may use it for private study, scholarship, research or language learning purposes only
© 2014 AZChords.com Contact us | Privacy policy | DMCA | Add/correct tabs | Request tabs | Top 50 tabs