>
 >
Re-birth

Re-birth Guitar Tabs

Ill Nino - Re-birth chords, tabs, tablatures, lyrics

Guitar lessons | Add/correct | Request | Top 50 tabs Artists:  A B C D E F G H I J K L M N O P Q R S T U V W X Y Z 0-9

Re-birth Guitar Tabs – Ill Nino

CD, Sheet music, Poster

Do you like Re-birth? Share with your friends now
Tabs
Ill Nino: Re-Birth




Tuning: Drop C (C,G,C,F,A,D)

Riff 1    "...this is what you get..."
Guitar 1
D|--------------------------------------------------------------------|
A|--------------------------------------------------------------------|
F|--------------------------------------------------------------------|
C|--------------------------------------------------------------------|
G|-----5555-----5555-----5555------------5555-----5555-----5555-------|
C|-0-0------0-0------0-0------0-0-0--0-0------0-0------0-0------0-0-0-|
   * * **** * * **** * * **** * * *  * * **** * * **** * * **** * * *

Riff 1
Guitar 2
D|--------------------------------------------------------------------|
A|--------------------------------------------------------------------|
F|--------------------------------------------------------------------|
C|--------------------------------------------------------------------|
G|-0-0-2----0-0-2----0-0-2----0-0-0--0-0-2----0-0-2----0-0-2----0-0-0-|
C|-0-0-2----0-0-2----0-0-2----0-0-0--0-0-2----0-0-2----0-0-2----0-0-0-|
   * * h    * * h    * * h    * * *  * * h    * * h    * * h    * * *

Riff 2   "Get what you're gonna get..."
D|------------------------------------------------|
A|------------------------------------------------|
F|------------------------------------------------|
C|-2-2--2-3--2-2--2-0--2-2--2-3--2-2--5-5-5-5-5-5-|
G|-2-2--2-3--2-2--2-0--2-2--2-3--2-2--5-5-5-5-5-5-|
C|-2-2--2-3--2-2--2-0--2-2--2-3--2-2--5-5-5-5-5-5-|
                                      * * * * * *

Riff 3   "When I was only just a boy..."
Guitar 1
D|-------------------------------------|
A|-------------------------------------|
F|-------------------------------------|
C|-----9---10-----9--------7--------10-|
G|---7---7----7----------5---5---------|
C|-7------------7------5-------5-------|

Riff 3
Guitar 2
D|-------------------------------12----------------------------------12-|
A|-12----10----13----12----10----------12----10----13----12----10-------|
F|----------------------------------------------------------------------|
C|----------------------------------------------------------------------|
G|----------------------------------------------------------------------|
C|----------------------------------------------------------------------|

Play Riff 2   "Get what you're gonna get..."

Riff 4
D|-----------------|
A|-----------------|
F|-----------------|
C|-2-0-0-2-0-0-2-0-|
G|-2-0-0-2-0-0-2-0-|
C|-2-0-0-2-0-0-2-0-|
     * *   * *   *

Riff 5   "One thing..."
Guitar 1
D|-----------------------------------------------|
A|-----------------------------------------------|
F|-----------------------------------------------|
C|-----------------------------------------------|
G|-0-0-0-0-0-0-0-0-000000-0-0-0-0-0-0-0-0-000000-|
C|-0-0-0-0-0-0-0-0-000000-0-0-0-0-0-0-0-0-000000-|
   * * * * * * * * ****** * * * * * * * * ******

Riff 5
Guitar 2
D|-------------------------------------------|
A|-------------------------------------------|
F|-14-12----------15-15-15-15-15-15-15-14-12-|
C|-x--x-----------x--x--x--x--x--x--x--x--x--|
G|-12-10----------13-13-13-13-13-13-13-12-10-|
C|-------------------------------------------|

Riff 6    "Just let me be..."
Guitar 1
D|---------------------|
A|---------------------|
F|---------------------|
C|---------------------|
G|-0-0-0-0-0-0-0-0-0-2-|
C|-0-0-0-0-0-0-0-0-0-2-|
   * * * * * * * *

Riff 6
Guitar 2
D|-------------------------|
A|-------------------------|
F|-14-12------12-12-12-16\-|
C|-x--x-------x--x--x--x---|
G|-12-10------10-10-10-14\-|
C|-------------------------|

Play Riff 2   "Get what you're gonna get..."
Play Riff 3   "If you think you got the answer..."
Play Riff 2   "Get what you're gonna get..."
Play Riff 4   "...inside of me..."
Play Riff 5   "One thing..."
Play Riff 6   "Just let me be..."
Play Riff 1   "...this is what you get..."



Notation:

10^        = bend a quarter step.
10b11      = bend a half step.
10b12      = bend a full step.
10b12r10   = bend and release.
[10]12     = pre-bend.
[10]12r10  = pre-bend and release.
{14}       = pick the 14th fret while holding the most 
             previous bend.
<17>       = touch the string above the 17th fret while 
             previous note(s) is(are) still ringing.

10b13*     = tremolo bar bend, from the 10th fret to the 13th fret.
7d4*       = tremolo bar dive, from the 7th fret to the 4th fret. 
12~*       = tremolo bar vibrato.

x   =  mute with fret-hand
*   =  palm mute
X\\ =  pick slide
h   =  hammer-on
p   =  pull-off
~   =  vibrato
t   =  finger tap
/   =  slide up
\   =  slide down
h.  =  natural harmonics
a   =  artificial harmonics
(9) =  ghost note
tm  =  trem picking
tr  =  trill





Comments


Popular Ill Nino tabs & chords
God Save Us 1 Bass Tabs
Predisposed 1 Bass Tabs
Rumba 2 Bass Tabs
Under The Sun Bass Tabs
What Comes Around 3 Bass Tabs
De La Vida 3 Tabs
Predisposed 1 Tabs
Turns To Gray 2 Tabs
Two Vaya Con Dios Tabs
What Comes Around Remix Tabs


Song lyrics



↑ Back to top | Tablatures and chords are parodies/interpretations of the original songs. You may use it for private study, scholarship, research or language learning purposes only
© 2014 AZChords.com Contact us | Privacy policy | DMCA | Add/correct tabs | Request tabs | Top 50 tabs