>
 >
Predisposed 2

Predisposed 2 Guitar Tabs

Ill Nino - Predisposed 2 chords, tabs, tablatures, lyrics

Guitar lessons | Add/correct | Request | Top 50 tabs Artists:  A B C D E F G H I J K L M N O P Q R S T U V W X Y Z 0-9

Predisposed 2 Guitar Tabs – Ill Nino

CD, Sheet music, Poster

Do you like Predisposed 2? Share with your friends now
Bass TabsBass Tabs v2Bass Tabs v3Bass Tabs v4TabsTabs v2Tabs v3
Ill Nino: Predisposed




Tuning: Drop C (C,G,C,F,A,D)

Riff 1 (Heavy distortion)
D|------------------------------------------------------------------|
A|------------------------------------------------------------------|
F|------------------------------------------------------------------|
C|------------------------------------------------------------------|
G|------13p12-12---------13p12-12---------13p12-12---------13p12-12-|
C|-0----------------0----------------0----------------0-------------|

Riff 2   "This is my time..."
D|----------------------------------------------------------|
A|----------------------------------------------------------|
F|----------------------------------------------------------|
C|------------12------------------12------------------12----|
G|------13p12----12---------13p12----12---------13p12----12-|
C|-0-------------------0-------------------0----------------|

Riff 3   "...go back where you came from!"
D|-------------------------|
A|-------------------------|
F|-------------------------|
C|-------------------------|
G|-0-0-0-0-0-0-0-0-0-0-0-0-|
C|-0-0-0-0-0-0-0-0-0-0-0-0-|
   * * * * * * * * * * * *

Riff 4
D|---------------------------------|
A|---------------------------------|
F|---------------------------------|
C|-----7-7-7/8\7-5-7-7-7-8-8-5-5-5-|
G|-0-0-5-5-5/6\5-3-5-5-5-6-6-3-3-3-|
C|-0-0-----------------------------|

Riff 5   "Now is the time to accept..."
D|----------------------------------------------------|
A|----------------------------------------------------|
F|----------------------------------------------------|
C|----------------------------------------------------|
G|-0-0-0--0-0-0-0-0-0-0-0--0-0-0--0-0-----------------|
C|-0-0-0--0-0-0-0-0-0-0-0--0-0-0--0-0-0h1-1-1-1h3-3-3-|
   * *    * * * * * * * *  * *    * *

Riff 5a   "That one step took me..."
D|----------------------------------------------------|
A|----------------------------------------------------|
F|----------------------------------------------------|
C|----------------------------------------------------|
G|-0-0-0--0-0-0-0-0-0-0-0--0-0-0--0-0-----------------|
C|-0-0-0--0-0-0-0-0-0-0-0--0-0-0--0-0-3p1-1-1-1h3-3-3-|
   * *    * * * * * * * *  * *    * *

Riff 6   "Too inncentive I'm not..."
Guitar 1
D|-------------------------------------------------------|
A|-------------------------------------------------------|
F|-------------------------------------------------------|
C|-8-8-8-8-8-8-8-8-8/12-12-12-12-5-5-5-5-5-5-5-5-3-3-3-3-|
G|-8-8-8-8-8-8-8-8-8/12-12-12-12-5-5-5-5-5-5-5-5-3-3-3-3-|
C|-8-8-8-8-8-8-8-8-8/12-12-12-12-5-5-5-5-5-5-5-5-3-3-3-3-|

Riff 6
Guitar 2
D|-------------------------------------10-------------------|
A|-11-------11-------11-------11----------------11-10-------|
F|----12-12----12-12----12-12----12-12----12-12-------12-12-|
C|----------------------------------------------------------|
G|----------------------------------------------------------|
C|----------------------------------------------------------|

D|-------------------------------------|
A|-10-------10-------10----------------|
F|----12-12----12-12----12-12-10-10-10-|
C|-------------------------------------|
G|-------------------------------------|
C|-------------------------------------|

Riff 6a   "...searching without a cause..."
D|---------------------------|
A|---------------------------|
F|---------------------------|
C|-8-8-8-8-8-8-8-8-12--12--5-|
G|-8-8-8-8-8-8-8-8-12--12--5-|
C|-8-8-8-8-8-8-8-8-12--12--5-|

Play Riff 4   "Aaaaaaahhhhhhhh..."
Play Riff 5   "I will not stay in complete control..."
Play Riff 5a  "I take that one step..."
Play Riff 6   "Too inncentive I'm not..."
Play Riff 6a

Riff 7   "Give me a chance..."
D|--------------------------------|
A|--------------------------------|
F|--------------------------------|
C|----------------------------7-5-|
G|-5---5----5h6-5-5---5-----5-----|
C|---5--------------5----3--------|

Riff 8   "This is the time to get my life back!"
D|---------------------------------|
A|---------------------------------|
F|---------------------------------|
C|-5-5-5-5-5-5-5-5-3-3-3-3-3-3-3-3-|
G|-5-5-5-5-5-5-5-5-3-3-3-3-3-3-3-3-|
C|-5-5-5-5-5-5-5-5-3-3-3-3-3-3-3-3-|
   * * * * * * * * * * * * * * * *

Play Riff 6   "Too inncentive I'm not..."
Play Riff 6a  "Searching without a cause..."


Notation:

10^        = bend a quarter step.
10b11      = bend a half step.
10b12      = bend a full step.
10b12r10   = bend and release.
[10]12     = pre-bend.
[10]12r10  = pre-bend and release.
{14}       = pick the 14th fret while holding the most 
             previous bend.
<17>       = touch the string above the 17th fret while 
             previous note(s) is(are) still ringing.

10b13*     = tremolo bar bend, from the 10th fret to the 13th fret.
7d4*       = tremolo bar dive, from the 7th fret to the 4th fret. 
12~*       = tremolo bar vibrato.

x   =  mute with fret-hand
*   =  palm mute
X\\ =  pick slide
h   =  hammer-on
p   =  pull-off
~   =  vibrato
t   =  finger tap
/   =  slide up
\   =  slide down
h.  =  natural harmonics
a   =  artificial harmonics
(9) =  ghost note
tm  =  trem picking
tr  =  trill





Comments


Popular Ill Nino tabs & chords
What Comes Around Bass Tabs
Formal Obsession" Tabs
God Save Us 2 Tabs
I Am Loco Tabs
No Murder 1 Tabs
Nothing's Clear Tabs
Rumba Tabs
Scarred Tabs
This Time's For Real Tabs
What Comes Around Tabs


Song lyrics



↑ Back to top | Tablatures and chords are parodies/interpretations of the original songs. You may use it for private study, scholarship, research or language learning purposes only
© 2014 AZChords.com Contact us | Privacy policy | DMCA | Add/correct tabs | Request tabs | Top 50 tabs