>
 >
No Murder 1

No Murder 1 Guitar Tabs

Ill Nino - No Murder 1 chords, tabs, tablatures, lyrics

Guitar lessons | Add/correct | Request | Top 50 tabs Artists:  A B C D E F G H I J K L M N O P Q R S T U V W X Y Z 0-9

No Murder 1 Guitar Tabs – Ill Nino

CD, Sheet music, Poster

Do you like No Murder 1? Share with your friends now
Bass TabsTabsTabs v2
Ill Nino: No Murder




Tuning: Drop C (C,G,C,F,A,D)

Riff 1   "This time I'm taking back..."
D|---------------------------------|
A|---------------------------------|
F|---------------------------------|
C|---------------------------------|
G|---------------------------------|
C|-3-2-0-2-0-2-0-3-3-2-0-2-0-2-0-3-|

Riff 2
D|----------------------------------|
A|----------------------------------|
F|----------------------------------|
C|-3-2-0-2-0-2-0-333-2-0-2-0-2-0-33-|
G|-3-2-0-2-0-2-0-333-2-0-2-0-2-0-33-|
C|-3-2-0-2-0-2-0-333-2-0-2-0-2-0-33-|

Riff 3   "No murder!"
D|---------------------------------|
A|---------------------------------|
F|---------------------------------|
C|-3-2-0-2-0-2-0-3-3-2-0-2-0-2-0-3-|
G|-3-2-0-2-0-2-0-3-3-2-0-2-0-2-0-3-|
C|-3-2-0-2-0-2-0-3-3-2-0-2-0-2-0-3-|
       * * * * *       * * * * *

Riff 4    "I realize that every..."
Guitar 1
D|-----------------------------|
A|-10-------------10-----------|
F|------12---11--------12---11-|
C|----0----0----0----0----0----|
G|-----------------------------|
C|-----------------------------|

Riff 4   "Okay..."
Guitar 2
D|--------------------------|
A|--------------------------|
F|--------------------------|
C|-3-2----3-2----3-2----3-2-|
G|-3-2----3-2----3-2----3-2-|
C|-3-2----3-2----3-2----3-2-|
   * *    * *    * *    * *

Riff 5   "...what do you, what do you want..."
D|----------------------------|
A|----------------------------|
F|----------------------------|
C|-3-2-0-2-0-2----3-2-0-2-0-2-|
G|-3-2-0-2-0-2----3-2-0-2-0-2-|
C|-3-2-0-2-0-2----3-2-0-2-0-2-|

Riff 5a
D|--------|
A|--------|
F|--------|
C|-0-2-3\-|
G|-0-2-3\-|
C|-0-2-3\-|

Riff 6   "I don't even care..."
Guitar 1
D|-----------------------------------------------|
A|-----------------------------------------------|
F|-----------------------------------------------|
C|-7-7-7-7-7-7-10-10-10-10---0-0-0-0-0-0-5-5-5-5-|
G|-7-7-7-7-7-7-10-10-10-10---0-0-0-0-0-0-3-3-3-3-|
C|-7-7-7-7-7-7-10-10-10-10---0-0-0-0-0-0-3-3-3-3-|

Riff 6
Guitar 2
D|-7-7-7-7-7-7-8-8-8-8-8-8-----8---7-7-7-7-7-7-5-5-5-5-5-5-----8---|
A|-------------------------5h6---6-------------------------5h6---6-|
F|-----------------------------------------------------------------|
C|-----------------------------------------------------------------|
G|-----------------------------------------------------------------|
C|-----------------------------------------------------------------|

D|-7-7-7-7-7-7-8-8-8-8-8-8-----8---7-7-7-8-8-8-7-7-7-8-8-8-8-8-8-8-|
A|-------------------------5h6---6---------------------------------|
F|-----------------------------------------------------------------|
C|-----------------------------------------------------------------|
G|-----------------------------------------------------------------|
C|-----------------------------------------------------------------|

Play Riff 2   "No...more..."
Play Riff 3   "No murder..."
Play Riff 4   "I realize..."
Play Riff 5   "...what do you, what do you want..."
Play Riff 5a
Play Riff 6   "I don't even care..."
Play Riff 2   "No...more..."
Play Riff 3   "No murder!"



Notation:

10^        = bend a quarter step.
10b11      = bend a half step.
10b12      = bend a full step.
10b12r10   = bend and release.
[10]12     = pre-bend.
[10]12r10  = pre-bend and release.
{14}       = pick the 14th fret while holding the most 
             previous bend.
<17>       = touch the string above the 17th fret while 
             previous note(s) is(are) still ringing.

10b13*     = tremolo bar bend, from the 10th fret to the 13th fret.
7d4*       = tremolo bar dive, from the 7th fret to the 4th fret. 
12~*       = tremolo bar vibrato.

x   =  mute with fret-hand
*   =  palm mute
X\\ =  pick slide
h   =  hammer-on
p   =  pull-off
~   =  vibrato
t   =  finger tap
/   =  slide up
\   =  slide down
h.  =  natural harmonics
a   =  artificial harmonics
(9) =  ghost note
tm  =  trem picking
tr  =  trill





Comments


Popular Ill Nino tabs & chords
Rumba Bass Tabs
Violent Saint Bass Tabs
What You Deserve 2 Bass Tabs
Cleansing Tabs
Corazon Of Mine 1 Tabs
If You Still Hate Me 3 Tabs
Liar 2 Tabs
Lifeless Life Tabs
Revolucion / Revolucion Bits And Peices Tabs
Two Vaya Con Dios Tabs


Song lyrics



↑ Back to top | Tablatures and chords are parodies/interpretations of the original songs. You may use it for private study, scholarship, research or language learning purposes only
© 2014 AZChords.com Contact us | Privacy policy | DMCA | Add/correct tabs | Request tabs | Top 50 tabs