» » »

Ill Nino, My Resurrection Tabs (ver.2)

Artists:  A B C D E F G H I J K L M N O P Q R S T U V W X Y Z # 

My Resurrection Tabs (ver.2)

Ill Nino Tabs
 Rating:
4/5 (4 votes)
My Resurrection lessons Tabs too difficult? Try these video lessons and learn fast
1
                intro:

D|-----------------------------------------------------------------|
A|-----------------------------------------------------------------|
F|-7--7--7--8--8--5--5--11--11-8---7--7--7--8--8--5--5--11--11-8---|
C|---0--0--0--0--0--0--0--0------0---0--0--0--0--0--0--0--0--------|
G|-----------------------------------------------------------------|
C|-----------------------------------------------------------------|

D|---------------------------------|         |---------------|
A|---------------------------------|         |---------------|
F|---------------------------------|< x3 then|---------------|
C|---------------------------------|         |--------3-1-3-1|
G|---------------------------------|         |-3-1-3-1-------|
C|-0-1-2-2-2-2-2-2--0-1-2-2-2-2-2-2|         |---------------|
   . . . . . . . .  . . . . . . . .            . . . .. . . .


D|---------------------------------|         |---------------|
A|---------------------------------|         |---------------|
F|---------------------------------|< x3 then|---------------|
C|---------------------------------|         |---------------|
G|---------------------------------|         |-3-2-----------|
C|-0-1-2-2-2-2-2-2--0-1-2-2-2-2-2-2|         |----3-2-1-0----|
   . . . . . . . .  . . . . . . . .  

Verse:

D|---------------------------------------------------------|
A|---------------------------------------------------------|
F|--5---------------5---------------5---------------5-5-5--|
C|--5-0-0-0-0-0-0-0-5-0-0-0-0-0-0-0-5-0-0-0-0-0-0-0-5-5-5--| x 3
G|--3-0-0-0-0-0-0-0-3-0-0-0-0-0-0-0-3-0-0-0-0-0-0-0-3-3-3--|
C|----0-0-0-0-0-0-0---0-0-0-0-0-0-0---0-0-0-0-0-0-0--------|  
      . . . . . . .   . . . . . . .   . . . . . . .  

D|-----------------------------------|
A|-----------------------------------|
F|-------5------5-------5------------|
C|-------5------5-------5------------| x 4
G|-------3------3-------3------------|
C|--3-0-0--3-0-0--3-0-0---0-0-0-0----|
      . .    . .    . .   . . . . 

Chorus:

D|------------------------|
A|------------------------|
F|--------5---------------| x 4
C|--0-3-0-5-0-0-3-0-0-0---|
G|--0-3-0-3-0-0-3-0-0-0---|
C|--0-3-0---0-0-3-0-0-0---|   


Verse:

D|---------------------------------|         |---------------|
A|---------------------------------|         |---------------|
F|---------------------------------|< x3 then|---------------|
C|---------------------------------|         |--------3-1-3-1|
G|---------------------------------|         |-3-1-3-1-------|
C|-0-1-2-2-2-2-2-2--0-1-2-2-2-2-2-2|         |---------------|
   . . . . . . . .  . . . . . . . .            . . . .. . . .


D|---------------------------------|         |---------------|
A|---------------------------------|         |---------------|
F|---------------------------------|< x3 then|---------------|
C|---------------------------------|         |---------------|
G|---------------------------------|         |-3-2-----------|
C|-0-1-2-2-2-2-2-2--0-1-2-2-2-2-2-2|         |----3-2-1-0----|
   . . . . . . . .  . . . . . . . .  

D|---------------------------------------------------------|
A|---------------------------------------------------------|
F|--5---------------5---------------5---------------5-5-5--|
C|--5-0-0-0-0-0-0-0-5-0-0-0-0-0-0-0-5-0-0-0-0-0-0-0-5-5-5--| x 3
G|--3-0-0-0-0-0-0-0-3-0-0-0-0-0-0-0-3-0-0-0-0-0-0-0-3-3-3--|
C|----0-0-0-0-0-0-0---0-0-0-0-0-0-0---0-0-0-0-0-0-0--------|  
      . . . . . . .   . . . . . . .   . . . . . . .  

D|-----------------------------------|
A|-----------------------------------|
F|-------5------5-------5------------|
C|-------5------5-------5------------| x 4
G|-------3------3-------3------------|
C|--3-0-0--3-0-0--3-0-0---0-0-0-0----|
      . .    . .    . .   . . . . 

Chorus:

D|------------------------|
A|------------------------|
F|--------5---------------| x 4
C|--0-3-0-5-0-0-3-0-0-0---|
G|--0-3-0-3-0-0-3-0-0-0---|
C|--0-3-0---0-0-3-0-0-0---|   

fill:

D|-------------------------------------|
A|-------------------------------------|
F|--------5-5-5-5-5--------5-5-5-5-5---|
C|--------5-5-5-5-5--------5-5-5-5-5---| x 8
G|--------3-3-3-3-3--------3-3-3-3-3---|
C|--0-0-0------------0-0-0-------------|
    . . .            . . .

D|-----------------------------------|
A|-----------------------------------|
F|-------5------5-------5------------|
C|-------5------5-------5------------| x 4
G|-------3------3-------3------------|
C|--3-0-0--3-0-0--3-0-0---0-0-0-0----|
      . .    . .    . .   . . . . 

Chorus:

D|------------------------|
A|------------------------|
F|--------5---------------| x 4
C|--0-3-0-5-0-0-3-0-0-0---|
G|--0-3-0-3-0-0-3-0-0-0---|
C|--0-3-0---0-0-3-0-0-0---|   
            
Submit corrections

comments powered by Disqus
↑ Back to top | Ill Nino Tabs for My Resurrection. Lyrics for acoustic guitar and electric guitar. 1 Tablatures and chords are parodies/interpretations of the original songs. You may use it for private study, scholarship, research or language learning purposes only